ISO-10303-21;
HEADER;
/* Generated by software containing ST-Developer
 * from STEP Tools, Inc. (www.steptools.com) 
 */

FILE_DESCRIPTION(
/* description */ ('KriTec Knotenblech 6 Raster 20 Al 100x100x5'),
/* implementation_level */ '2;1');

FILE_NAME(
/* name */ 
'S:\\Bilder_neu\\82033_KriTec_Knotenblech_6_Raster_20_Al_100x100x5\\In
ventordateien\\82033_KriTec_Knotenblech_6_Raster_20_Al_100x100x5.stp',
/* time_stamp */ '2020-10-23T10:32:21+02:00',
/* author */ ('jendrek'),
/* organization */ (''),
/* preprocessor_version */ 'ST-DEVELOPER v17',
/* originating_system */ 'Autodesk Inventor 2018',
/* authorisation */ '');

FILE_SCHEMA (('AUTOMOTIVE_DESIGN { 1 0 10303 214 3 1 1 }'));
ENDSEC;

DATA;
#10=MECHANICAL_DESIGN_GEOMETRIC_PRESENTATION_REPRESENTATION('',(#13),#457);
#11=SHAPE_REPRESENTATION_RELATIONSHIP('SRR','None',#464,#12);
#12=ADVANCED_BREP_SHAPE_REPRESENTATION('',(#14),#456);
#13=STYLED_ITEM('',(#473),#14);
#14=MANIFOLD_SOLID_BREP('Volumenk\X\F6rper1',#255);
#15=FACE_BOUND('',#43,.T.);
#16=FACE_BOUND('',#44,.T.);
#17=FACE_BOUND('',#45,.T.);
#18=FACE_BOUND('',#46,.T.);
#19=FACE_BOUND('',#56,.T.);
#20=FACE_BOUND('',#57,.T.);
#21=FACE_BOUND('',#58,.T.);
#22=FACE_BOUND('',#59,.T.);
#23=PLANE('',#278);
#24=PLANE('',#279);
#25=PLANE('',#288);
#26=PLANE('',#303);
#27=PLANE('',#304);
#28=FACE_OUTER_BOUND('',#40,.T.);
#29=FACE_OUTER_BOUND('',#41,.T.);
#30=FACE_OUTER_BOUND('',#42,.T.);
#31=FACE_OUTER_BOUND('',#47,.T.);
#32=FACE_OUTER_BOUND('',#48,.T.);
#33=FACE_OUTER_BOUND('',#49,.T.);
#34=FACE_OUTER_BOUND('',#50,.T.);
#35=FACE_OUTER_BOUND('',#51,.T.);
#36=FACE_OUTER_BOUND('',#52,.T.);
#37=FACE_OUTER_BOUND('',#53,.T.);
#38=FACE_OUTER_BOUND('',#54,.T.);
#39=FACE_OUTER_BOUND('',#55,.T.);
#40=EDGE_LOOP('',(#168,#169,#170,#171));
#41=EDGE_LOOP('',(#172,#173,#174,#175));
#42=EDGE_LOOP('',(#176,#177,#178,#179,#180,#181));
#43=EDGE_LOOP('',(#182));
#44=EDGE_LOOP('',(#183));
#45=EDGE_LOOP('',(#184));
#46=EDGE_LOOP('',(#185));
#47=EDGE_LOOP('',(#186,#187,#188,#189));
#48=EDGE_LOOP('',(#190,#191,#192,#193));
#49=EDGE_LOOP('',(#194,#195,#196,#197));
#50=EDGE_LOOP('',(#198,#199,#200,#201,#202));
#51=EDGE_LOOP('',(#203,#204,#205,#206,#207));
#52=EDGE_LOOP('',(#208,#209,#210,#211,#212));
#53=EDGE_LOOP('',(#213,#214,#215,#216,#217));
#54=EDGE_LOOP('',(#218,#219,#220,#221));
#55=EDGE_LOOP('',(#222,#223,#224,#225,#226,#227));
#56=EDGE_LOOP('',(#228,#229));
#57=EDGE_LOOP('',(#230,#231));
#58=EDGE_LOOP('',(#232,#233));
#59=EDGE_LOOP('',(#234,#235));
#60=LINE('',#389,#76);
#61=LINE('',#392,#77);
#62=LINE('',#395,#78);
#63=LINE('',#397,#79);
#64=LINE('',#398,#80);
#65=LINE('',#401,#81);
#66=LINE('',#405,#82);
#67=LINE('',#418,#83);
#68=LINE('',#421,#84);
#69=LINE('',#422,#85);
#70=LINE('',#426,#86);
#71=LINE('',#432,#87);
#72=LINE('',#438,#88);
#73=LINE('',#444,#89);
#74=LINE('',#450,#90);
#75=LINE('',#452,#91);
#76=VECTOR('',#311,10.);
#77=VECTOR('',#314,10.);
#78=VECTOR('',#317,10.);
#79=VECTOR('',#318,10.);
#80=VECTOR('',#319,10.);
#81=VECTOR('',#322,10.);
#82=VECTOR('',#325,10.);
#83=VECTOR('',#340,10.);
#84=VECTOR('',#343,10.);
#85=VECTOR('',#344,10.);
#86=VECTOR('',#349,10.);
#87=VECTOR('',#356,2.7);
#88=VECTOR('',#363,2.7);
#89=VECTOR('',#370,2.7);
#90=VECTOR('',#377,2.7);
#91=VECTOR('',#380,10.);
#92=CIRCLE('',#276,5.);
#93=CIRCLE('',#277,5.);
#94=CIRCLE('',#280,5.);
#95=CIRCLE('',#281,5.);
#96=CIRCLE('',#282,2.7);
#97=CIRCLE('',#283,2.7);
#98=CIRCLE('',#284,2.7);
#99=CIRCLE('',#285,2.7);
#100=CIRCLE('',#287,5.);
#101=CIRCLE('',#290,5.);
#102=CIRCLE('',#292,2.7);
#103=CIRCLE('',#293,2.7);
#104=CIRCLE('',#295,2.7);
#105=CIRCLE('',#296,2.7);
#106=CIRCLE('',#298,2.7);
#107=CIRCLE('',#299,2.7);
#108=CIRCLE('',#301,2.7);
#109=CIRCLE('',#302,2.7);
#110=VERTEX_POINT('',#385);
#111=VERTEX_POINT('',#386);
#112=VERTEX_POINT('',#388);
#113=VERTEX_POINT('',#390);
#114=VERTEX_POINT('',#394);
#115=VERTEX_POINT('',#396);
#116=VERTEX_POINT('',#400);
#117=VERTEX_POINT('',#402);
#118=VERTEX_POINT('',#404);
#119=VERTEX_POINT('',#407);
#120=VERTEX_POINT('',#409);
#121=VERTEX_POINT('',#411);
#122=VERTEX_POINT('',#413);
#123=VERTEX_POINT('',#416);
#124=VERTEX_POINT('',#420);
#125=VERTEX_POINT('',#424);
#126=VERTEX_POINT('',#428);
#127=VERTEX_POINT('',#429);
#128=VERTEX_POINT('',#434);
#129=VERTEX_POINT('',#435);
#130=VERTEX_POINT('',#440);
#131=VERTEX_POINT('',#441);
#132=VERTEX_POINT('',#446);
#133=VERTEX_POINT('',#447);
#134=EDGE_CURVE('',#110,#111,#92,.T.);
#135=EDGE_CURVE('',#111,#112,#60,.T.);
#136=EDGE_CURVE('',#112,#113,#93,.T.);
#137=EDGE_CURVE('',#113,#110,#61,.T.);
#138=EDGE_CURVE('',#114,#113,#62,.T.);
#139=EDGE_CURVE('',#115,#114,#63,.T.);
#140=EDGE_CURVE('',#110,#115,#64,.T.);
#141=EDGE_CURVE('',#112,#116,#65,.T.);
#142=EDGE_CURVE('',#117,#116,#94,.T.);
#143=EDGE_CURVE('',#117,#118,#66,.T.);
#144=EDGE_CURVE('',#114,#118,#95,.T.);
#145=EDGE_CURVE('',#119,#119,#96,.T.);
#146=EDGE_CURVE('',#120,#120,#97,.T.);
#147=EDGE_CURVE('',#121,#121,#98,.T.);
#148=EDGE_CURVE('',#122,#122,#99,.T.);
#149=EDGE_CURVE('',#123,#115,#100,.T.);
#150=EDGE_CURVE('',#118,#123,#67,.T.);
#151=EDGE_CURVE('',#124,#117,#68,.T.);
#152=EDGE_CURVE('',#123,#124,#69,.T.);
#153=EDGE_CURVE('',#125,#124,#101,.T.);
#154=EDGE_CURVE('',#116,#125,#70,.T.);
#155=EDGE_CURVE('',#126,#127,#102,.T.);
#156=EDGE_CURVE('',#127,#126,#103,.T.);
#157=EDGE_CURVE('',#127,#122,#71,.T.);
#158=EDGE_CURVE('',#128,#129,#104,.T.);
#159=EDGE_CURVE('',#129,#128,#105,.T.);
#160=EDGE_CURVE('',#129,#121,#72,.T.);
#161=EDGE_CURVE('',#130,#131,#106,.T.);
#162=EDGE_CURVE('',#131,#130,#107,.T.);
#163=EDGE_CURVE('',#131,#120,#73,.T.);
#164=EDGE_CURVE('',#132,#133,#108,.T.);
#165=EDGE_CURVE('',#133,#132,#109,.T.);
#166=EDGE_CURVE('',#133,#119,#74,.T.);
#167=EDGE_CURVE('',#125,#111,#75,.T.);
#168=ORIENTED_EDGE('',*,*,#134,.T.);
#169=ORIENTED_EDGE('',*,*,#135,.T.);
#170=ORIENTED_EDGE('',*,*,#136,.T.);
#171=ORIENTED_EDGE('',*,*,#137,.T.);
#172=ORIENTED_EDGE('',*,*,#137,.F.);
#173=ORIENTED_EDGE('',*,*,#138,.F.);
#174=ORIENTED_EDGE('',*,*,#139,.F.);
#175=ORIENTED_EDGE('',*,*,#140,.F.);
#176=ORIENTED_EDGE('',*,*,#136,.F.);
#177=ORIENTED_EDGE('',*,*,#141,.T.);
#178=ORIENTED_EDGE('',*,*,#142,.F.);
#179=ORIENTED_EDGE('',*,*,#143,.T.);
#180=ORIENTED_EDGE('',*,*,#144,.F.);
#181=ORIENTED_EDGE('',*,*,#138,.T.);
#182=ORIENTED_EDGE('',*,*,#145,.T.);
#183=ORIENTED_EDGE('',*,*,#146,.T.);
#184=ORIENTED_EDGE('',*,*,#147,.T.);
#185=ORIENTED_EDGE('',*,*,#148,.T.);
#186=ORIENTED_EDGE('',*,*,#149,.T.);
#187=ORIENTED_EDGE('',*,*,#139,.T.);
#188=ORIENTED_EDGE('',*,*,#144,.T.);
#189=ORIENTED_EDGE('',*,*,#150,.T.);
#190=ORIENTED_EDGE('',*,*,#150,.F.);
#191=ORIENTED_EDGE('',*,*,#143,.F.);
#192=ORIENTED_EDGE('',*,*,#151,.F.);
#193=ORIENTED_EDGE('',*,*,#152,.F.);
#194=ORIENTED_EDGE('',*,*,#153,.T.);
#195=ORIENTED_EDGE('',*,*,#151,.T.);
#196=ORIENTED_EDGE('',*,*,#142,.T.);
#197=ORIENTED_EDGE('',*,*,#154,.T.);
#198=ORIENTED_EDGE('',*,*,#155,.F.);
#199=ORIENTED_EDGE('',*,*,#156,.F.);
#200=ORIENTED_EDGE('',*,*,#157,.T.);
#201=ORIENTED_EDGE('',*,*,#148,.F.);
#202=ORIENTED_EDGE('',*,*,#157,.F.);
#203=ORIENTED_EDGE('',*,*,#158,.F.);
#204=ORIENTED_EDGE('',*,*,#159,.F.);
#205=ORIENTED_EDGE('',*,*,#160,.T.);
#206=ORIENTED_EDGE('',*,*,#147,.F.);
#207=ORIENTED_EDGE('',*,*,#160,.F.);
#208=ORIENTED_EDGE('',*,*,#161,.F.);
#209=ORIENTED_EDGE('',*,*,#162,.F.);
#210=ORIENTED_EDGE('',*,*,#163,.T.);
#211=ORIENTED_EDGE('',*,*,#146,.F.);
#212=ORIENTED_EDGE('',*,*,#163,.F.);
#213=ORIENTED_EDGE('',*,*,#164,.F.);
#214=ORIENTED_EDGE('',*,*,#165,.F.);
#215=ORIENTED_EDGE('',*,*,#166,.T.);
#216=ORIENTED_EDGE('',*,*,#145,.F.);
#217=ORIENTED_EDGE('',*,*,#166,.F.);
#218=ORIENTED_EDGE('',*,*,#135,.F.);
#219=ORIENTED_EDGE('',*,*,#167,.F.);
#220=ORIENTED_EDGE('',*,*,#154,.F.);
#221=ORIENTED_EDGE('',*,*,#141,.F.);
#222=ORIENTED_EDGE('',*,*,#134,.F.);
#223=ORIENTED_EDGE('',*,*,#140,.T.);
#224=ORIENTED_EDGE('',*,*,#149,.F.);
#225=ORIENTED_EDGE('',*,*,#152,.T.);
#226=ORIENTED_EDGE('',*,*,#153,.F.);
#227=ORIENTED_EDGE('',*,*,#167,.T.);
#228=ORIENTED_EDGE('',*,*,#155,.T.);
#229=ORIENTED_EDGE('',*,*,#156,.T.);
#230=ORIENTED_EDGE('',*,*,#158,.T.);
#231=ORIENTED_EDGE('',*,*,#159,.T.);
#232=ORIENTED_EDGE('',*,*,#161,.T.);
#233=ORIENTED_EDGE('',*,*,#162,.T.);
#234=ORIENTED_EDGE('',*,*,#164,.T.);
#235=ORIENTED_EDGE('',*,*,#165,.T.);
#236=CYLINDRICAL_SURFACE('',#275,5.);
#237=CYLINDRICAL_SURFACE('',#286,5.);
#238=CYLINDRICAL_SURFACE('',#289,5.);
#239=CYLINDRICAL_SURFACE('',#291,2.7);
#240=CYLINDRICAL_SURFACE('',#294,2.7);
#241=CYLINDRICAL_SURFACE('',#297,2.7);
#242=CYLINDRICAL_SURFACE('',#300,2.7);
#243=ADVANCED_FACE('',(#28),#236,.T.);
#244=ADVANCED_FACE('',(#29),#23,.T.);
#245=ADVANCED_FACE('',(#30,#15,#16,#17,#18),#24,.F.);
#246=ADVANCED_FACE('',(#31),#237,.T.);
#247=ADVANCED_FACE('',(#32),#25,.T.);
#248=ADVANCED_FACE('',(#33),#238,.T.);
#249=ADVANCED_FACE('',(#34),#239,.F.);
#250=ADVANCED_FACE('',(#35),#240,.F.);
#251=ADVANCED_FACE('',(#36),#241,.F.);
#252=ADVANCED_FACE('',(#37),#242,.F.);
#253=ADVANCED_FACE('',(#38),#26,.T.);
#254=ADVANCED_FACE('',(#39,#19,#20,#21,#22),#27,.T.);
#255=CLOSED_SHELL('',(#243,#244,#245,#246,#247,#248,#249,#250,#251,#252,
#253,#254));
#256=DERIVED_UNIT_ELEMENT(#258,1.);
#257=DERIVED_UNIT_ELEMENT(#459,3.);
#258=(
MASS_UNIT()
NAMED_UNIT(*)
SI_UNIT($,.GRAM.)
);
#259=DERIVED_UNIT((#256,#257));
#260=MEASURE_REPRESENTATION_ITEM('density measure',
POSITIVE_RATIO_MEASURE(2.66),#259);
#261=PROPERTY_DEFINITION_REPRESENTATION(#266,#263);
#262=PROPERTY_DEFINITION_REPRESENTATION(#267,#264);
#263=REPRESENTATION('material name',(#265),#456);
#264=REPRESENTATION('density',(#260),#456);
#265=DESCRIPTIVE_REPRESENTATION_ITEM('3.3315 ALMg1 / EN AW 5005A',
'3.3315 ALMg1 / EN AW 5005A');
#266=PROPERTY_DEFINITION('material property','material name',#466);
#267=PROPERTY_DEFINITION('material property','density of part',#466);
#268=DATE_TIME_ROLE('creation_date');
#269=APPLIED_DATE_AND_TIME_ASSIGNMENT(#270,#268,(#466));
#270=DATE_AND_TIME(#271,#272);
#271=CALENDAR_DATE(2020,23,10);
#272=LOCAL_TIME(8,31,31.,#273);
#273=COORDINATED_UNIVERSAL_TIME_OFFSET(0,0,.BEHIND.);
#274=AXIS2_PLACEMENT_3D('placement',#383,#305,#306);
#275=AXIS2_PLACEMENT_3D('',#384,#307,#308);
#276=AXIS2_PLACEMENT_3D('',#387,#309,#310);
#277=AXIS2_PLACEMENT_3D('',#391,#312,#313);
#278=AXIS2_PLACEMENT_3D('',#393,#315,#316);
#279=AXIS2_PLACEMENT_3D('',#399,#320,#321);
#280=AXIS2_PLACEMENT_3D('',#403,#323,#324);
#281=AXIS2_PLACEMENT_3D('',#406,#326,#327);
#282=AXIS2_PLACEMENT_3D('',#408,#328,#329);
#283=AXIS2_PLACEMENT_3D('',#410,#330,#331);
#284=AXIS2_PLACEMENT_3D('',#412,#332,#333);
#285=AXIS2_PLACEMENT_3D('',#414,#334,#335);
#286=AXIS2_PLACEMENT_3D('',#415,#336,#337);
#287=AXIS2_PLACEMENT_3D('',#417,#338,#339);
#288=AXIS2_PLACEMENT_3D('',#419,#341,#342);
#289=AXIS2_PLACEMENT_3D('',#423,#345,#346);
#290=AXIS2_PLACEMENT_3D('',#425,#347,#348);
#291=AXIS2_PLACEMENT_3D('',#427,#350,#351);
#292=AXIS2_PLACEMENT_3D('',#430,#352,#353);
#293=AXIS2_PLACEMENT_3D('',#431,#354,#355);
#294=AXIS2_PLACEMENT_3D('',#433,#357,#358);
#295=AXIS2_PLACEMENT_3D('',#436,#359,#360);
#296=AXIS2_PLACEMENT_3D('',#437,#361,#362);
#297=AXIS2_PLACEMENT_3D('',#439,#364,#365);
#298=AXIS2_PLACEMENT_3D('',#442,#366,#367);
#299=AXIS2_PLACEMENT_3D('',#443,#368,#369);
#300=AXIS2_PLACEMENT_3D('',#445,#371,#372);
#301=AXIS2_PLACEMENT_3D('',#448,#373,#374);
#302=AXIS2_PLACEMENT_3D('',#449,#375,#376);
#303=AXIS2_PLACEMENT_3D('',#451,#378,#379);
#304=AXIS2_PLACEMENT_3D('',#453,#381,#382);
#305=DIRECTION('axis',(0.,0.,1.));
#306=DIRECTION('refdir',(1.,0.,0.));
#307=DIRECTION('center_axis',(0.,0.,1.));
#308=DIRECTION('ref_axis',(-0.382683432365092,0.923879532511286,0.));
#309=DIRECTION('center_axis',(0.,0.,-1.));
#310=DIRECTION('ref_axis',(-0.382683432365092,0.923879532511286,0.));
#311=DIRECTION('',(0.,0.,-1.));
#312=DIRECTION('center_axis',(0.,0.,1.));
#313=DIRECTION('ref_axis',(-0.382683432365092,0.923879532511286,0.));
#314=DIRECTION('',(0.,0.,1.));
#315=DIRECTION('center_axis',(-1.,0.,0.));
#316=DIRECTION('ref_axis',(0.,-1.,0.));
#317=DIRECTION('',(0.,1.,0.));
#318=DIRECTION('',(0.,0.,-1.));
#319=DIRECTION('',(0.,-1.,0.));
#320=DIRECTION('center_axis',(0.,0.,1.));
#321=DIRECTION('ref_axis',(1.,0.,0.));
#322=DIRECTION('',(0.707106781186548,-0.707106781186548,0.));
#323=DIRECTION('center_axis',(0.,0.,1.));
#324=DIRECTION('ref_axis',(0.923879532511286,-0.382683432365092,0.));
#325=DIRECTION('',(-1.,-5.55111512312578E-18,0.));
#326=DIRECTION('center_axis',(0.,0.,1.));
#327=DIRECTION('ref_axis',(-0.707106781186547,-0.707106781186547,0.));
#328=DIRECTION('center_axis',(0.,0.,1.));
#329=DIRECTION('ref_axis',(1.,0.,0.));
#330=DIRECTION('center_axis',(0.,0.,1.));
#331=DIRECTION('ref_axis',(1.,0.,0.));
#332=DIRECTION('center_axis',(0.,0.,1.));
#333=DIRECTION('ref_axis',(1.,0.,0.));
#334=DIRECTION('center_axis',(0.,0.,1.));
#335=DIRECTION('ref_axis',(1.,0.,0.));
#336=DIRECTION('center_axis',(0.,0.,1.));
#337=DIRECTION('ref_axis',(-0.707106781186547,-0.707106781186547,0.));
#338=DIRECTION('center_axis',(0.,0.,-1.));
#339=DIRECTION('ref_axis',(-0.707106781186547,-0.707106781186547,0.));
#340=DIRECTION('',(0.,0.,1.));
#341=DIRECTION('center_axis',(5.55111512312578E-18,-1.,0.));
#342=DIRECTION('ref_axis',(1.,5.55111512312578E-18,0.));
#343=DIRECTION('',(0.,0.,-1.));
#344=DIRECTION('',(1.,5.55111512312578E-18,0.));
#345=DIRECTION('center_axis',(0.,0.,1.));
#346=DIRECTION('ref_axis',(0.923879532511286,-0.382683432365092,0.));
#347=DIRECTION('center_axis',(0.,0.,-1.));
#348=DIRECTION('ref_axis',(0.923879532511286,-0.382683432365092,0.));
#349=DIRECTION('',(0.,0.,1.));
#350=DIRECTION('center_axis',(0.,0.,1.));
#351=DIRECTION('ref_axis',(1.,0.,0.));
#352=DIRECTION('center_axis',(0.,0.,-1.));
#353=DIRECTION('ref_axis',(1.,0.,0.));
#354=DIRECTION('center_axis',(0.,0.,-1.));
#355=DIRECTION('ref_axis',(1.,0.,0.));
#356=DIRECTION('',(0.,0.,-1.));
#357=DIRECTION('center_axis',(0.,0.,1.));
#358=DIRECTION('ref_axis',(1.,0.,0.));
#359=DIRECTION('center_axis',(0.,0.,-1.));
#360=DIRECTION('ref_axis',(1.,0.,0.));
#361=DIRECTION('center_axis',(0.,0.,-1.));
#362=DIRECTION('ref_axis',(1.,0.,0.));
#363=DIRECTION('',(0.,0.,-1.));
#364=DIRECTION('center_axis',(0.,0.,1.));
#365=DIRECTION('ref_axis',(1.,0.,0.));
#366=DIRECTION('center_axis',(0.,0.,-1.));
#367=DIRECTION('ref_axis',(1.,0.,0.));
#368=DIRECTION('center_axis',(0.,0.,-1.));
#369=DIRECTION('ref_axis',(1.,0.,0.));
#370=DIRECTION('',(0.,0.,-1.));
#371=DIRECTION('center_axis',(0.,0.,1.));
#372=DIRECTION('ref_axis',(1.,0.,0.));
#373=DIRECTION('center_axis',(0.,0.,-1.));
#374=DIRECTION('ref_axis',(1.,0.,0.));
#375=DIRECTION('center_axis',(0.,0.,-1.));
#376=DIRECTION('ref_axis',(1.,0.,0.));
#377=DIRECTION('',(0.,0.,-1.));
#378=DIRECTION('center_axis',(0.707106781186548,0.707106781186548,0.));
#379=DIRECTION('ref_axis',(-0.707106781186548,0.707106781186548,0.));
#380=DIRECTION('',(-0.707106781186548,0.707106781186548,0.));
#381=DIRECTION('center_axis',(0.,0.,1.));
#382=DIRECTION('ref_axis',(1.,0.,0.));
#383=CARTESIAN_POINT('',(0.,0.,0.));
#384=CARTESIAN_POINT('Origin',(5.,87.9289321881345,0.));
#385=CARTESIAN_POINT('',(0.,87.9289321881345,5.));
#386=CARTESIAN_POINT('',(8.53553390593273,91.4644660940673,5.));
#387=CARTESIAN_POINT('Origin',(5.,87.9289321881345,5.));
#388=CARTESIAN_POINT('',(8.53553390593273,91.4644660940673,0.));
#389=CARTESIAN_POINT('',(8.53553390593273,91.4644660940673,0.));
#390=CARTESIAN_POINT('',(0.,87.9289321881345,0.));
#391=CARTESIAN_POINT('Origin',(5.,87.9289321881345,0.));
#392=CARTESIAN_POINT('',(0.,87.9289321881345,0.));
#393=CARTESIAN_POINT('Origin',(0.,100.,0.));
#394=CARTESIAN_POINT('',(0.,5.,0.));
#395=CARTESIAN_POINT('',(0.,0.,0.));
#396=CARTESIAN_POINT('',(0.,5.,5.));
#397=CARTESIAN_POINT('',(0.,5.,0.));
#398=CARTESIAN_POINT('',(0.,0.,5.));
#399=CARTESIAN_POINT('Origin',(35.3553390593274,35.3553390593274,0.));
#400=CARTESIAN_POINT('',(91.4644660940672,8.53553390593275,0.));
#401=CARTESIAN_POINT('',(0.,100.,0.));
#402=CARTESIAN_POINT('',(87.9289321881345,4.88103625229855E-16,0.));
#403=CARTESIAN_POINT('Origin',(87.9289321881345,5.,0.));
#404=CARTESIAN_POINT('',(5.,2.77555756156289E-17,0.));
#405=CARTESIAN_POINT('',(100.,5.55111512312578E-16,0.));
#406=CARTESIAN_POINT('Origin',(5.,5.,0.));
#407=CARTESIAN_POINT('',(7.3,75.,0.));
#408=CARTESIAN_POINT('Origin',(10.,75.,0.));
#409=CARTESIAN_POINT('',(72.3,10.,0.));
#410=CARTESIAN_POINT('Origin',(75.,10.,0.));
#411=CARTESIAN_POINT('',(47.3,10.,0.));
#412=CARTESIAN_POINT('Origin',(50.,10.,0.));
#413=CARTESIAN_POINT('',(7.3,50.,0.));
#414=CARTESIAN_POINT('Origin',(10.,50.,0.));
#415=CARTESIAN_POINT('Origin',(5.,5.,0.));
#416=CARTESIAN_POINT('',(5.,2.77555756156289E-17,5.));
#417=CARTESIAN_POINT('Origin',(5.,5.,5.));
#418=CARTESIAN_POINT('',(5.,0.,0.));
#419=CARTESIAN_POINT('Origin',(0.,0.,0.));
#420=CARTESIAN_POINT('',(87.9289321881345,4.88103625229855E-16,5.));
#421=CARTESIAN_POINT('',(87.9289321881345,5.55111512312578E-16,0.));
#422=CARTESIAN_POINT('',(100.,5.55111512312578E-16,5.));
#423=CARTESIAN_POINT('Origin',(87.9289321881345,5.,0.));
#424=CARTESIAN_POINT('',(91.4644660940672,8.53553390593275,5.));
#425=CARTESIAN_POINT('Origin',(87.9289321881345,5.,5.));
#426=CARTESIAN_POINT('',(91.4644660940673,8.53553390593273,0.));
#427=CARTESIAN_POINT('Origin',(10.,50.,-136.509716980849));
#428=CARTESIAN_POINT('',(12.7,50.,5.));
#429=CARTESIAN_POINT('',(7.3,50.,5.));
#430=CARTESIAN_POINT('Origin',(10.,50.,5.));
#431=CARTESIAN_POINT('Origin',(10.,50.,5.));
#432=CARTESIAN_POINT('',(7.3,50.,-136.509716980849));
#433=CARTESIAN_POINT('Origin',(50.,10.,-136.509716980849));
#434=CARTESIAN_POINT('',(52.7,10.,5.));
#435=CARTESIAN_POINT('',(47.3,10.,5.));
#436=CARTESIAN_POINT('Origin',(50.,10.,5.));
#437=CARTESIAN_POINT('Origin',(50.,10.,5.));
#438=CARTESIAN_POINT('',(47.3,10.,-136.509716980849));
#439=CARTESIAN_POINT('Origin',(75.,10.,-136.509716980849));
#440=CARTESIAN_POINT('',(77.7,10.,5.));
#441=CARTESIAN_POINT('',(72.3,10.,5.));
#442=CARTESIAN_POINT('Origin',(75.,10.,5.));
#443=CARTESIAN_POINT('Origin',(75.,10.,5.));
#444=CARTESIAN_POINT('',(72.3,10.,-136.509716980849));
#445=CARTESIAN_POINT('Origin',(10.,75.,-136.509716980849));
#446=CARTESIAN_POINT('',(12.7,75.,5.));
#447=CARTESIAN_POINT('',(7.3,75.,5.));
#448=CARTESIAN_POINT('Origin',(10.,75.,5.));
#449=CARTESIAN_POINT('Origin',(10.,75.,5.));
#450=CARTESIAN_POINT('',(7.3,75.,-136.509716980849));
#451=CARTESIAN_POINT('Origin',(100.,-1.77635683940025E-14,0.));
#452=CARTESIAN_POINT('',(0.,100.,5.));
#453=CARTESIAN_POINT('Origin',(35.3553390593274,35.3553390593274,5.));
#454=UNCERTAINTY_MEASURE_WITH_UNIT(LENGTH_MEASURE(0.01),#458,
'DISTANCE_ACCURACY_VALUE',
'Maximum model space distance between geometric entities at asserted c
onnectivities');
#455=UNCERTAINTY_MEASURE_WITH_UNIT(LENGTH_MEASURE(0.01),#458,
'DISTANCE_ACCURACY_VALUE',
'Maximum model space distance between geometric entities at asserted c
onnectivities');
#456=(
GEOMETRIC_REPRESENTATION_CONTEXT(3)
GLOBAL_UNCERTAINTY_ASSIGNED_CONTEXT((#454))
GLOBAL_UNIT_ASSIGNED_CONTEXT((#458,#461,#460))
REPRESENTATION_CONTEXT('','3D')
);
#457=(
GEOMETRIC_REPRESENTATION_CONTEXT(3)
GLOBAL_UNCERTAINTY_ASSIGNED_CONTEXT((#455))
GLOBAL_UNIT_ASSIGNED_CONTEXT((#458,#461,#460))
REPRESENTATION_CONTEXT('','3D')
);
#458=(
LENGTH_UNIT()
NAMED_UNIT(*)
SI_UNIT(.MILLI.,.METRE.)
);
#459=(
LENGTH_UNIT()
NAMED_UNIT(*)
SI_UNIT(.CENTI.,.METRE.)
);
#460=(
NAMED_UNIT(*)
SI_UNIT($,.STERADIAN.)
SOLID_ANGLE_UNIT()
);
#461=(
NAMED_UNIT(*)
PLANE_ANGLE_UNIT()
SI_UNIT($,.RADIAN.)
);
#462=SHAPE_DEFINITION_REPRESENTATION(#463,#464);
#463=PRODUCT_DEFINITION_SHAPE('',$,#466);
#464=SHAPE_REPRESENTATION('',(#274),#456);
#465=PRODUCT_DEFINITION_CONTEXT('part definition',#470,'design');
#466=PRODUCT_DEFINITION('82033',
'82033 KriTec Knotenblech 6 Raster 20 Al 100x100x5',#467,#465);
#467=PRODUCT_DEFINITION_FORMATION('',$,#472);
#468=PRODUCT_RELATED_PRODUCT_CATEGORY(
'82033 KriTec Knotenblech 6 Raster 20 Al 100x100x5',
'82033 KriTec Knotenblech 6 Raster 20 Al 100x100x5',(#472));
#469=APPLICATION_PROTOCOL_DEFINITION('international standard',
'automotive_design',2009,#470);
#470=APPLICATION_CONTEXT(
'Core Data for Automotive Mechanical Design Process');
#471=PRODUCT_CONTEXT('part definition',#470,'mechanical');
#472=PRODUCT('82033',
'82033 KriTec Knotenblech 6 Raster 20 Al 100x100x5',
'KriTec Knotenblech 6 Raster 20 Al 100x100x5',(#471));
#473=PRESENTATION_STYLE_ASSIGNMENT((#474));
#474=SURFACE_STYLE_USAGE(.BOTH.,#475);
#475=SURFACE_SIDE_STYLE('',(#476));
#476=SURFACE_STYLE_FILL_AREA(#477);
#477=FILL_AREA_STYLE('',(#478));
#478=FILL_AREA_STYLE_COLOUR('',#479);
#479=COLOUR_RGB('',0.996078431372549,0.996078431372549,1.);
ENDSEC;
END-ISO-10303-21;
