ISO-10303-21;
HEADER;
/* Generated by software containing ST-Developer
 * from STEP Tools, Inc. (www.steptools.com) 
 */

FILE_DESCRIPTION(
/* description */ (
'KriTec Stahlwinkel 10 45x45x45x5 mit Langl\X\F6chern 90\X\B0 versetzt
, schwarz'),
/* implementation_level */ '2;1');

FILE_NAME(
/* name */ 
'C:\\Arbeitsordner\\Designs\\Kuhlemann\\neuteile\\81597\\81597 KriTec 
Stahlwinkel 10 45x45x45x5 mit Langl\X\F6chern 90\X\B0 versetzt, schwar
z.stp',
/* time_stamp */ '2020-09-21T14:53:15+02:00',
/* author */ ('Nell'),
/* organization */ (''),
/* preprocessor_version */ 'ST-DEVELOPER v17',
/* originating_system */ 'Autodesk Inventor 2018',
/* authorisation */ '');

FILE_SCHEMA (('AUTOMOTIVE_DESIGN { 1 0 10303 214 3 1 1 }'));
ENDSEC;

DATA;
#10=MECHANICAL_DESIGN_GEOMETRIC_PRESENTATION_REPRESENTATION('',(#13),#667);
#11=SHAPE_REPRESENTATION_RELATIONSHIP('SRR','None',#674,#12);
#12=ADVANCED_BREP_SHAPE_REPRESENTATION('',(#14),#666);
#13=STYLED_ITEM('',(#683),#14);
#14=MANIFOLD_SOLID_BREP('Volumenk\X\F6rper1',#401);
#15=CYLINDRICAL_SURFACE('',#433,4.25);
#16=CYLINDRICAL_SURFACE('',#436,4.25);
#17=CYLINDRICAL_SURFACE('',#439,4.25);
#18=CYLINDRICAL_SURFACE('',#442,4.25);
#19=FACE_BOUND('',#53,.T.);
#20=FACE_BOUND('',#57,.T.);
#21=FACE_BOUND('',#70,.T.);
#22=FACE_BOUND('',#73,.T.);
#23=CIRCLE('',#423,4.25);
#24=CIRCLE('',#424,4.25);
#25=CIRCLE('',#428,4.25);
#26=CIRCLE('',#429,4.25);
#27=CIRCLE('',#434,4.25);
#28=CIRCLE('',#437,4.25);
#29=CIRCLE('',#440,4.25);
#30=CIRCLE('',#443,4.25);
#31=FACE_OUTER_BOUND('',#51,.T.);
#32=FACE_OUTER_BOUND('',#52,.T.);
#33=FACE_OUTER_BOUND('',#54,.T.);
#34=FACE_OUTER_BOUND('',#55,.T.);
#35=FACE_OUTER_BOUND('',#56,.T.);
#36=FACE_OUTER_BOUND('',#58,.T.);
#37=FACE_OUTER_BOUND('',#59,.T.);
#38=FACE_OUTER_BOUND('',#60,.T.);
#39=FACE_OUTER_BOUND('',#61,.T.);
#40=FACE_OUTER_BOUND('',#62,.T.);
#41=FACE_OUTER_BOUND('',#63,.T.);
#42=FACE_OUTER_BOUND('',#64,.T.);
#43=FACE_OUTER_BOUND('',#65,.T.);
#44=FACE_OUTER_BOUND('',#66,.T.);
#45=FACE_OUTER_BOUND('',#67,.T.);
#46=FACE_OUTER_BOUND('',#68,.T.);
#47=FACE_OUTER_BOUND('',#69,.T.);
#48=FACE_OUTER_BOUND('',#71,.T.);
#49=FACE_OUTER_BOUND('',#72,.T.);
#50=FACE_OUTER_BOUND('',#74,.T.);
#51=EDGE_LOOP('',(#257,#258,#259,#260));
#52=EDGE_LOOP('',(#261,#262,#263,#264,#265,#266));
#53=EDGE_LOOP('',(#267,#268,#269,#270));
#54=EDGE_LOOP('',(#271,#272,#273,#274,#275,#276));
#55=EDGE_LOOP('',(#277,#278,#279,#280));
#56=EDGE_LOOP('',(#281,#282,#283,#284,#285,#286));
#57=EDGE_LOOP('',(#287,#288,#289,#290));
#58=EDGE_LOOP('',(#291,#292,#293,#294));
#59=EDGE_LOOP('',(#295,#296,#297,#298,#299,#300));
#60=EDGE_LOOP('',(#301,#302,#303,#304));
#61=EDGE_LOOP('',(#305,#306,#307,#308));
#62=EDGE_LOOP('',(#309,#310,#311,#312));
#63=EDGE_LOOP('',(#313,#314,#315,#316));
#64=EDGE_LOOP('',(#317,#318,#319,#320));
#65=EDGE_LOOP('',(#321,#322,#323,#324));
#66=EDGE_LOOP('',(#325,#326,#327,#328));
#67=EDGE_LOOP('',(#329,#330,#331,#332));
#68=EDGE_LOOP('',(#333,#334,#335,#336));
#69=EDGE_LOOP('',(#337,#338,#339,#340,#341,#342));
#70=EDGE_LOOP('',(#343,#344,#345,#346));
#71=EDGE_LOOP('',(#347,#348,#349,#350));
#72=EDGE_LOOP('',(#351,#352,#353,#354,#355,#356));
#73=EDGE_LOOP('',(#357,#358,#359,#360));
#74=EDGE_LOOP('',(#361,#362,#363,#364));
#75=LINE('',#557,#121);
#76=LINE('',#559,#122);
#77=LINE('',#561,#123);
#78=LINE('',#562,#124);
#79=LINE('',#565,#125);
#80=LINE('',#567,#126);
#81=LINE('',#569,#127);
#82=LINE('',#571,#128);
#83=LINE('',#572,#129);
#84=LINE('',#577,#130);
#85=LINE('',#580,#131);
#86=LINE('',#583,#132);
#87=LINE('',#585,#133);
#88=LINE('',#587,#134);
#89=LINE('',#588,#135);
#90=LINE('',#591,#136);
#91=LINE('',#593,#137);
#92=LINE('',#594,#138);
#93=LINE('',#597,#139);
#94=LINE('',#599,#140);
#95=LINE('',#600,#141);
#96=LINE('',#605,#142);
#97=LINE('',#608,#143);
#98=LINE('',#612,#144);
#99=LINE('',#613,#145);
#100=LINE('',#614,#146);
#101=LINE('',#617,#147);
#102=LINE('',#619,#148);
#103=LINE('',#620,#149);
#104=LINE('',#623,#150);
#105=LINE('',#624,#151);
#106=LINE('',#627,#152);
#107=LINE('',#630,#153);
#108=LINE('',#633,#154);
#109=LINE('',#634,#155);
#110=LINE('',#638,#156);
#111=LINE('',#640,#157);
#112=LINE('',#643,#158);
#113=LINE('',#646,#159);
#114=LINE('',#649,#160);
#115=LINE('',#650,#161);
#116=LINE('',#654,#162);
#117=LINE('',#656,#163);
#118=LINE('',#658,#164);
#119=LINE('',#659,#165);
#120=LINE('',#662,#166);
#121=VECTOR('',#453,10.);
#122=VECTOR('',#454,10.);
#123=VECTOR('',#455,10.);
#124=VECTOR('',#456,10.);
#125=VECTOR('',#459,10.);
#126=VECTOR('',#460,10.);
#127=VECTOR('',#461,10.);
#128=VECTOR('',#462,10.);
#129=VECTOR('',#463,10.);
#130=VECTOR('',#466,10.);
#131=VECTOR('',#469,10.);
#132=VECTOR('',#472,10.);
#133=VECTOR('',#473,10.);
#134=VECTOR('',#474,10.);
#135=VECTOR('',#475,10.);
#136=VECTOR('',#478,10.);
#137=VECTOR('',#479,10.);
#138=VECTOR('',#480,10.);
#139=VECTOR('',#483,10.);
#140=VECTOR('',#484,10.);
#141=VECTOR('',#485,10.);
#142=VECTOR('',#488,10.);
#143=VECTOR('',#491,10.);
#144=VECTOR('',#494,10.);
#145=VECTOR('',#495,10.);
#146=VECTOR('',#496,10.);
#147=VECTOR('',#499,10.);
#148=VECTOR('',#500,10.);
#149=VECTOR('',#501,10.);
#150=VECTOR('',#504,10.);
#151=VECTOR('',#505,10.);
#152=VECTOR('',#508,10.);
#153=VECTOR('',#511,10.);
#154=VECTOR('',#514,10.);
#155=VECTOR('',#515,10.);
#156=VECTOR('',#520,10.);
#157=VECTOR('',#523,10.);
#158=VECTOR('',#526,10.);
#159=VECTOR('',#529,10.);
#160=VECTOR('',#532,10.);
#161=VECTOR('',#533,10.);
#162=VECTOR('',#538,10.);
#163=VECTOR('',#541,10.);
#164=VECTOR('',#544,10.);
#165=VECTOR('',#545,10.);
#166=VECTOR('',#550,10.);
#167=VERTEX_POINT('',#555);
#168=VERTEX_POINT('',#556);
#169=VERTEX_POINT('',#558);
#170=VERTEX_POINT('',#560);
#171=VERTEX_POINT('',#564);
#172=VERTEX_POINT('',#566);
#173=VERTEX_POINT('',#568);
#174=VERTEX_POINT('',#570);
#175=VERTEX_POINT('',#573);
#176=VERTEX_POINT('',#574);
#177=VERTEX_POINT('',#576);
#178=VERTEX_POINT('',#578);
#179=VERTEX_POINT('',#582);
#180=VERTEX_POINT('',#584);
#181=VERTEX_POINT('',#586);
#182=VERTEX_POINT('',#590);
#183=VERTEX_POINT('',#592);
#184=VERTEX_POINT('',#596);
#185=VERTEX_POINT('',#598);
#186=VERTEX_POINT('',#601);
#187=VERTEX_POINT('',#602);
#188=VERTEX_POINT('',#604);
#189=VERTEX_POINT('',#606);
#190=VERTEX_POINT('',#610);
#191=VERTEX_POINT('',#611);
#192=VERTEX_POINT('',#616);
#193=VERTEX_POINT('',#618);
#194=VERTEX_POINT('',#622);
#195=VERTEX_POINT('',#626);
#196=VERTEX_POINT('',#628);
#197=VERTEX_POINT('',#632);
#198=VERTEX_POINT('',#636);
#199=VERTEX_POINT('',#642);
#200=VERTEX_POINT('',#644);
#201=VERTEX_POINT('',#648);
#202=VERTEX_POINT('',#652);
#203=EDGE_CURVE('',#167,#168,#75,.T.);
#204=EDGE_CURVE('',#168,#169,#76,.T.);
#205=EDGE_CURVE('',#169,#170,#77,.T.);
#206=EDGE_CURVE('',#170,#167,#78,.T.);
#207=EDGE_CURVE('',#171,#169,#79,.T.);
#208=EDGE_CURVE('',#172,#171,#80,.T.);
#209=EDGE_CURVE('',#173,#172,#81,.T.);
#210=EDGE_CURVE('',#174,#173,#82,.T.);
#211=EDGE_CURVE('',#170,#174,#83,.T.);
#212=EDGE_CURVE('',#175,#176,#23,.T.);
#213=EDGE_CURVE('',#176,#177,#84,.T.);
#214=EDGE_CURVE('',#177,#178,#24,.T.);
#215=EDGE_CURVE('',#178,#175,#85,.T.);
#216=EDGE_CURVE('',#168,#179,#86,.T.);
#217=EDGE_CURVE('',#179,#180,#87,.T.);
#218=EDGE_CURVE('',#181,#180,#88,.T.);
#219=EDGE_CURVE('',#181,#171,#89,.T.);
#220=EDGE_CURVE('',#182,#181,#90,.T.);
#221=EDGE_CURVE('',#180,#183,#91,.T.);
#222=EDGE_CURVE('',#183,#182,#92,.T.);
#223=EDGE_CURVE('',#182,#184,#93,.T.);
#224=EDGE_CURVE('',#185,#184,#94,.T.);
#225=EDGE_CURVE('',#172,#185,#95,.T.);
#226=EDGE_CURVE('',#186,#187,#25,.T.);
#227=EDGE_CURVE('',#187,#188,#96,.T.);
#228=EDGE_CURVE('',#188,#189,#26,.T.);
#229=EDGE_CURVE('',#189,#186,#97,.T.);
#230=EDGE_CURVE('',#190,#191,#98,.T.);
#231=EDGE_CURVE('',#191,#185,#99,.T.);
#232=EDGE_CURVE('',#184,#190,#100,.T.);
#233=EDGE_CURVE('',#191,#192,#101,.T.);
#234=EDGE_CURVE('',#192,#193,#102,.T.);
#235=EDGE_CURVE('',#173,#193,#103,.T.);
#236=EDGE_CURVE('',#193,#194,#104,.T.);
#237=EDGE_CURVE('',#194,#174,#105,.T.);
#238=EDGE_CURVE('',#195,#177,#106,.T.);
#239=EDGE_CURVE('',#196,#195,#27,.T.);
#240=EDGE_CURVE('',#196,#178,#107,.T.);
#241=EDGE_CURVE('',#197,#196,#108,.T.);
#242=EDGE_CURVE('',#197,#175,#109,.T.);
#243=EDGE_CURVE('',#198,#197,#28,.T.);
#244=EDGE_CURVE('',#198,#176,#110,.T.);
#245=EDGE_CURVE('',#195,#198,#111,.T.);
#246=EDGE_CURVE('',#199,#188,#112,.T.);
#247=EDGE_CURVE('',#200,#199,#29,.T.);
#248=EDGE_CURVE('',#200,#189,#113,.T.);
#249=EDGE_CURVE('',#201,#200,#114,.T.);
#250=EDGE_CURVE('',#201,#186,#115,.T.);
#251=EDGE_CURVE('',#202,#201,#30,.T.);
#252=EDGE_CURVE('',#202,#187,#116,.T.);
#253=EDGE_CURVE('',#199,#202,#117,.T.);
#254=EDGE_CURVE('',#167,#194,#118,.T.);
#255=EDGE_CURVE('',#192,#179,#119,.T.);
#256=EDGE_CURVE('',#183,#190,#120,.T.);
#257=ORIENTED_EDGE('',*,*,#203,.T.);
#258=ORIENTED_EDGE('',*,*,#204,.T.);
#259=ORIENTED_EDGE('',*,*,#205,.T.);
#260=ORIENTED_EDGE('',*,*,#206,.T.);
#261=ORIENTED_EDGE('',*,*,#205,.F.);
#262=ORIENTED_EDGE('',*,*,#207,.F.);
#263=ORIENTED_EDGE('',*,*,#208,.F.);
#264=ORIENTED_EDGE('',*,*,#209,.F.);
#265=ORIENTED_EDGE('',*,*,#210,.F.);
#266=ORIENTED_EDGE('',*,*,#211,.F.);
#267=ORIENTED_EDGE('',*,*,#212,.T.);
#268=ORIENTED_EDGE('',*,*,#213,.T.);
#269=ORIENTED_EDGE('',*,*,#214,.T.);
#270=ORIENTED_EDGE('',*,*,#215,.T.);
#271=ORIENTED_EDGE('',*,*,#204,.F.);
#272=ORIENTED_EDGE('',*,*,#216,.T.);
#273=ORIENTED_EDGE('',*,*,#217,.T.);
#274=ORIENTED_EDGE('',*,*,#218,.F.);
#275=ORIENTED_EDGE('',*,*,#219,.T.);
#276=ORIENTED_EDGE('',*,*,#207,.T.);
#277=ORIENTED_EDGE('',*,*,#220,.T.);
#278=ORIENTED_EDGE('',*,*,#218,.T.);
#279=ORIENTED_EDGE('',*,*,#221,.T.);
#280=ORIENTED_EDGE('',*,*,#222,.T.);
#281=ORIENTED_EDGE('',*,*,#220,.F.);
#282=ORIENTED_EDGE('',*,*,#223,.T.);
#283=ORIENTED_EDGE('',*,*,#224,.F.);
#284=ORIENTED_EDGE('',*,*,#225,.F.);
#285=ORIENTED_EDGE('',*,*,#208,.T.);
#286=ORIENTED_EDGE('',*,*,#219,.F.);
#287=ORIENTED_EDGE('',*,*,#226,.T.);
#288=ORIENTED_EDGE('',*,*,#227,.T.);
#289=ORIENTED_EDGE('',*,*,#228,.T.);
#290=ORIENTED_EDGE('',*,*,#229,.T.);
#291=ORIENTED_EDGE('',*,*,#230,.T.);
#292=ORIENTED_EDGE('',*,*,#231,.T.);
#293=ORIENTED_EDGE('',*,*,#224,.T.);
#294=ORIENTED_EDGE('',*,*,#232,.T.);
#295=ORIENTED_EDGE('',*,*,#231,.F.);
#296=ORIENTED_EDGE('',*,*,#233,.T.);
#297=ORIENTED_EDGE('',*,*,#234,.T.);
#298=ORIENTED_EDGE('',*,*,#235,.F.);
#299=ORIENTED_EDGE('',*,*,#209,.T.);
#300=ORIENTED_EDGE('',*,*,#225,.T.);
#301=ORIENTED_EDGE('',*,*,#210,.T.);
#302=ORIENTED_EDGE('',*,*,#235,.T.);
#303=ORIENTED_EDGE('',*,*,#236,.T.);
#304=ORIENTED_EDGE('',*,*,#237,.T.);
#305=ORIENTED_EDGE('',*,*,#214,.F.);
#306=ORIENTED_EDGE('',*,*,#238,.F.);
#307=ORIENTED_EDGE('',*,*,#239,.F.);
#308=ORIENTED_EDGE('',*,*,#240,.T.);
#309=ORIENTED_EDGE('',*,*,#215,.F.);
#310=ORIENTED_EDGE('',*,*,#240,.F.);
#311=ORIENTED_EDGE('',*,*,#241,.F.);
#312=ORIENTED_EDGE('',*,*,#242,.T.);
#313=ORIENTED_EDGE('',*,*,#212,.F.);
#314=ORIENTED_EDGE('',*,*,#242,.F.);
#315=ORIENTED_EDGE('',*,*,#243,.F.);
#316=ORIENTED_EDGE('',*,*,#244,.T.);
#317=ORIENTED_EDGE('',*,*,#213,.F.);
#318=ORIENTED_EDGE('',*,*,#244,.F.);
#319=ORIENTED_EDGE('',*,*,#245,.F.);
#320=ORIENTED_EDGE('',*,*,#238,.T.);
#321=ORIENTED_EDGE('',*,*,#228,.F.);
#322=ORIENTED_EDGE('',*,*,#246,.F.);
#323=ORIENTED_EDGE('',*,*,#247,.F.);
#324=ORIENTED_EDGE('',*,*,#248,.T.);
#325=ORIENTED_EDGE('',*,*,#229,.F.);
#326=ORIENTED_EDGE('',*,*,#248,.F.);
#327=ORIENTED_EDGE('',*,*,#249,.F.);
#328=ORIENTED_EDGE('',*,*,#250,.T.);
#329=ORIENTED_EDGE('',*,*,#226,.F.);
#330=ORIENTED_EDGE('',*,*,#250,.F.);
#331=ORIENTED_EDGE('',*,*,#251,.F.);
#332=ORIENTED_EDGE('',*,*,#252,.T.);
#333=ORIENTED_EDGE('',*,*,#227,.F.);
#334=ORIENTED_EDGE('',*,*,#252,.F.);
#335=ORIENTED_EDGE('',*,*,#253,.F.);
#336=ORIENTED_EDGE('',*,*,#246,.T.);
#337=ORIENTED_EDGE('',*,*,#203,.F.);
#338=ORIENTED_EDGE('',*,*,#254,.T.);
#339=ORIENTED_EDGE('',*,*,#236,.F.);
#340=ORIENTED_EDGE('',*,*,#234,.F.);
#341=ORIENTED_EDGE('',*,*,#255,.T.);
#342=ORIENTED_EDGE('',*,*,#216,.F.);
#343=ORIENTED_EDGE('',*,*,#243,.T.);
#344=ORIENTED_EDGE('',*,*,#241,.T.);
#345=ORIENTED_EDGE('',*,*,#239,.T.);
#346=ORIENTED_EDGE('',*,*,#245,.T.);
#347=ORIENTED_EDGE('',*,*,#206,.F.);
#348=ORIENTED_EDGE('',*,*,#211,.T.);
#349=ORIENTED_EDGE('',*,*,#237,.F.);
#350=ORIENTED_EDGE('',*,*,#254,.F.);
#351=ORIENTED_EDGE('',*,*,#221,.F.);
#352=ORIENTED_EDGE('',*,*,#217,.F.);
#353=ORIENTED_EDGE('',*,*,#255,.F.);
#354=ORIENTED_EDGE('',*,*,#233,.F.);
#355=ORIENTED_EDGE('',*,*,#230,.F.);
#356=ORIENTED_EDGE('',*,*,#256,.F.);
#357=ORIENTED_EDGE('',*,*,#251,.T.);
#358=ORIENTED_EDGE('',*,*,#249,.T.);
#359=ORIENTED_EDGE('',*,*,#247,.T.);
#360=ORIENTED_EDGE('',*,*,#253,.T.);
#361=ORIENTED_EDGE('',*,*,#222,.F.);
#362=ORIENTED_EDGE('',*,*,#256,.T.);
#363=ORIENTED_EDGE('',*,*,#232,.F.);
#364=ORIENTED_EDGE('',*,*,#223,.F.);
#365=PLANE('',#421);
#366=PLANE('',#422);
#367=PLANE('',#425);
#368=PLANE('',#426);
#369=PLANE('',#427);
#370=PLANE('',#430);
#371=PLANE('',#431);
#372=PLANE('',#432);
#373=PLANE('',#435);
#374=PLANE('',#438);
#375=PLANE('',#441);
#376=PLANE('',#444);
#377=PLANE('',#445);
#378=PLANE('',#446);
#379=PLANE('',#447);
#380=PLANE('',#448);
#381=ADVANCED_FACE('',(#31),#365,.T.);
#382=ADVANCED_FACE('',(#32,#19),#366,.T.);
#383=ADVANCED_FACE('',(#33),#367,.T.);
#384=ADVANCED_FACE('',(#34),#368,.T.);
#385=ADVANCED_FACE('',(#35,#20),#369,.T.);
#386=ADVANCED_FACE('',(#36),#370,.T.);
#387=ADVANCED_FACE('',(#37),#371,.T.);
#388=ADVANCED_FACE('',(#38),#372,.T.);
#389=ADVANCED_FACE('',(#39),#15,.F.);
#390=ADVANCED_FACE('',(#40),#373,.F.);
#391=ADVANCED_FACE('',(#41),#16,.F.);
#392=ADVANCED_FACE('',(#42),#374,.F.);
#393=ADVANCED_FACE('',(#43),#17,.F.);
#394=ADVANCED_FACE('',(#44),#375,.F.);
#395=ADVANCED_FACE('',(#45),#18,.F.);
#396=ADVANCED_FACE('',(#46),#376,.F.);
#397=ADVANCED_FACE('',(#47,#21),#377,.T.);
#398=ADVANCED_FACE('',(#48),#378,.T.);
#399=ADVANCED_FACE('',(#49,#22),#379,.T.);
#400=ADVANCED_FACE('',(#50),#380,.T.);
#401=CLOSED_SHELL('',(#381,#382,#383,#384,#385,#386,#387,#388,#389,#390,
#391,#392,#393,#394,#395,#396,#397,#398,#399,#400));
#402=DERIVED_UNIT_ELEMENT(#404,1.);
#403=DERIVED_UNIT_ELEMENT(#669,3.);
#404=(
MASS_UNIT()
NAMED_UNIT(*)
SI_UNIT($,.GRAM.)
);
#405=DERIVED_UNIT((#402,#403));
#406=MEASURE_REPRESENTATION_ITEM('density measure',
POSITIVE_RATIO_MEASURE(7.85),#405);
#407=PROPERTY_DEFINITION_REPRESENTATION(#412,#409);
#408=PROPERTY_DEFINITION_REPRESENTATION(#413,#410);
#409=REPRESENTATION('material name',(#411),#666);
#410=REPRESENTATION('density',(#406),#666);
#411=DESCRIPTIVE_REPRESENTATION_ITEM('Stahl, unlegiert',
'Stahl, unlegiert');
#412=PROPERTY_DEFINITION('material property','material name',#676);
#413=PROPERTY_DEFINITION('material property','density of part',#676);
#414=DATE_TIME_ROLE('creation_date');
#415=APPLIED_DATE_AND_TIME_ASSIGNMENT(#416,#414,(#676));
#416=DATE_AND_TIME(#417,#418);
#417=CALENDAR_DATE(2020,21,9);
#418=LOCAL_TIME(11,12,46.,#419);
#419=COORDINATED_UNIVERSAL_TIME_OFFSET(0,0,.BEHIND.);
#420=AXIS2_PLACEMENT_3D('placement',#553,#449,#450);
#421=AXIS2_PLACEMENT_3D('',#554,#451,#452);
#422=AXIS2_PLACEMENT_3D('',#563,#457,#458);
#423=AXIS2_PLACEMENT_3D('',#575,#464,#465);
#424=AXIS2_PLACEMENT_3D('',#579,#467,#468);
#425=AXIS2_PLACEMENT_3D('',#581,#470,#471);
#426=AXIS2_PLACEMENT_3D('',#589,#476,#477);
#427=AXIS2_PLACEMENT_3D('',#595,#481,#482);
#428=AXIS2_PLACEMENT_3D('',#603,#486,#487);
#429=AXIS2_PLACEMENT_3D('',#607,#489,#490);
#430=AXIS2_PLACEMENT_3D('',#609,#492,#493);
#431=AXIS2_PLACEMENT_3D('',#615,#497,#498);
#432=AXIS2_PLACEMENT_3D('',#621,#502,#503);
#433=AXIS2_PLACEMENT_3D('',#625,#506,#507);
#434=AXIS2_PLACEMENT_3D('',#629,#509,#510);
#435=AXIS2_PLACEMENT_3D('',#631,#512,#513);
#436=AXIS2_PLACEMENT_3D('',#635,#516,#517);
#437=AXIS2_PLACEMENT_3D('',#637,#518,#519);
#438=AXIS2_PLACEMENT_3D('',#639,#521,#522);
#439=AXIS2_PLACEMENT_3D('',#641,#524,#525);
#440=AXIS2_PLACEMENT_3D('',#645,#527,#528);
#441=AXIS2_PLACEMENT_3D('',#647,#530,#531);
#442=AXIS2_PLACEMENT_3D('',#651,#534,#535);
#443=AXIS2_PLACEMENT_3D('',#653,#536,#537);
#444=AXIS2_PLACEMENT_3D('',#655,#539,#540);
#445=AXIS2_PLACEMENT_3D('',#657,#542,#543);
#446=AXIS2_PLACEMENT_3D('',#660,#546,#547);
#447=AXIS2_PLACEMENT_3D('',#661,#548,#549);
#448=AXIS2_PLACEMENT_3D('',#663,#551,#552);
#449=DIRECTION('axis',(0.,0.,1.));
#450=DIRECTION('refdir',(1.,0.,0.));
#451=DIRECTION('center_axis',(0.,0.707106781186548,-0.707106781186548));
#452=DIRECTION('ref_axis',(-1.,0.,0.));
#453=DIRECTION('',(-2.94580642353073E-33,-0.707106781186548,-0.707106781186548));
#454=DIRECTION('',(-1.,0.,0.));
#455=DIRECTION('',(1.30841038223648E-16,0.707106781186548,0.707106781186548));
#456=DIRECTION('',(1.,0.,0.));
#457=DIRECTION('center_axis',(-1.,1.85037170770859E-16,0.));
#458=DIRECTION('ref_axis',(-1.85037170770859E-16,-1.,0.));
#459=DIRECTION('',(1.85037170770859E-16,1.,0.));
#460=DIRECTION('',(0.,0.,-1.));
#461=DIRECTION('',(-1.85037170770859E-16,-1.,0.));
#462=DIRECTION('',(-1.30841038223648E-16,-0.707106781186548,0.707106781186548));
#463=DIRECTION('',(0.,0.,1.));
#464=DIRECTION('center_axis',(1.,-1.85037170770859E-16,0.));
#465=DIRECTION('ref_axis',(0.,0.,-1.));
#466=DIRECTION('',(-1.85037170770859E-16,-1.,-3.33066907387547E-16));
#467=DIRECTION('center_axis',(1.,-1.85037170770859E-16,0.));
#468=DIRECTION('ref_axis',(0.,0.,1.));
#469=DIRECTION('',(1.85037170770859E-16,1.,-2.22044604925031E-16));
#470=DIRECTION('center_axis',(0.,0.,-1.));
#471=DIRECTION('ref_axis',(-1.,0.,0.));
#472=DIRECTION('',(-4.16599939628294E-33,-1.,0.));
#473=DIRECTION('',(-1.,0.,0.));
#474=DIRECTION('',(0.,-1.,0.));
#475=DIRECTION('',(1.,1.2335811384724E-16,0.));
#476=DIRECTION('center_axis',(-0.707106781186548,0.,-0.707106781186548));
#477=DIRECTION('ref_axis',(-0.707106781186548,0.,0.707106781186548));
#478=DIRECTION('',(0.707106781186548,8.72273588157653E-17,-0.707106781186548));
#479=DIRECTION('',(-0.707106781186548,0.,0.707106781186548));
#480=DIRECTION('',(0.,1.,0.));
#481=DIRECTION('center_axis',(-1.2335811384724E-16,1.,0.));
#482=DIRECTION('ref_axis',(-1.,-1.2335811384724E-16,0.));
#483=DIRECTION('',(0.,0.,1.));
#484=DIRECTION('',(-0.707106781186548,-8.72273588157653E-17,-0.707106781186548));
#485=DIRECTION('',(-1.,-1.2335811384724E-16,0.));
#486=DIRECTION('center_axis',(1.2335811384724E-16,-1.,0.));
#487=DIRECTION('ref_axis',(-1.,0.,1.0449157878825E-15));
#488=DIRECTION('',(6.66133814775094E-16,8.21730109605221E-32,1.));
#489=DIRECTION('center_axis',(1.2335811384724E-16,-1.,0.));
#490=DIRECTION('ref_axis',(1.,0.,-5.2245789394125E-16));
#491=DIRECTION('',(-8.88178419700125E-16,-1.09564014614029E-31,-1.));
#492=DIRECTION('center_axis',(-0.707106781186548,0.,0.707106781186548));
#493=DIRECTION('ref_axis',(0.707106781186548,0.,0.707106781186548));
#494=DIRECTION('',(0.707106781186548,0.,0.707106781186548));
#495=DIRECTION('',(0.,1.,0.));
#496=DIRECTION('',(0.,-1.,0.));
#497=DIRECTION('center_axis',(0.,0.,1.));
#498=DIRECTION('ref_axis',(1.,0.,0.));
#499=DIRECTION('',(1.,0.,0.));
#500=DIRECTION('',(0.,1.,0.));
#501=DIRECTION('',(1.,0.,0.));
#502=DIRECTION('center_axis',(0.,0.707106781186548,0.707106781186548));
#503=DIRECTION('ref_axis',(1.,0.,0.));
#504=DIRECTION('',(2.94580642353073E-33,0.707106781186548,-0.707106781186548));
#505=DIRECTION('',(-1.,0.,0.));
#506=DIRECTION('center_axis',(-1.,0.,0.));
#507=DIRECTION('ref_axis',(0.,0.,1.));
#508=DIRECTION('',(-1.,0.,0.));
#509=DIRECTION('center_axis',(-1.,4.16599939628294E-33,0.));
#510=DIRECTION('ref_axis',(0.,0.,1.));
#511=DIRECTION('',(-1.,0.,0.));
#512=DIRECTION('center_axis',(0.,-2.22044604925031E-16,-1.));
#513=DIRECTION('ref_axis',(-4.16599939628294E-33,-1.,2.22044604925031E-16));
#514=DIRECTION('',(-4.16599939628294E-33,-1.,2.22044604925031E-16));
#515=DIRECTION('',(-1.,0.,0.));
#516=DIRECTION('center_axis',(-1.,0.,0.));
#517=DIRECTION('ref_axis',(0.,0.,-1.));
#518=DIRECTION('center_axis',(-1.,4.16599939628294E-33,0.));
#519=DIRECTION('ref_axis',(0.,0.,-1.));
#520=DIRECTION('',(-1.,0.,0.));
#521=DIRECTION('center_axis',(0.,-3.33066907387547E-16,1.));
#522=DIRECTION('ref_axis',(4.16599939628294E-33,1.,3.33066907387547E-16));
#523=DIRECTION('',(4.16599939628294E-33,1.,3.33066907387547E-16));
#524=DIRECTION('center_axis',(0.,1.,0.));
#525=DIRECTION('ref_axis',(1.,0.,-5.2245789394125E-16));
#526=DIRECTION('',(0.,1.,0.));
#527=DIRECTION('center_axis',(0.,1.,0.));
#528=DIRECTION('ref_axis',(1.,0.,-5.2245789394125E-16));
#529=DIRECTION('',(0.,1.,0.));
#530=DIRECTION('center_axis',(-1.,0.,8.88178419700125E-16));
#531=DIRECTION('ref_axis',(8.88178419700125E-16,0.,1.));
#532=DIRECTION('',(8.88178419700125E-16,0.,1.));
#533=DIRECTION('',(0.,1.,0.));
#534=DIRECTION('center_axis',(0.,1.,0.));
#535=DIRECTION('ref_axis',(-1.,0.,1.0449157878825E-15));
#536=DIRECTION('center_axis',(0.,1.,0.));
#537=DIRECTION('ref_axis',(-1.,0.,1.0449157878825E-15));
#538=DIRECTION('',(0.,1.,0.));
#539=DIRECTION('center_axis',(1.,0.,-6.66133814775094E-16));
#540=DIRECTION('ref_axis',(-6.66133814775094E-16,0.,-1.));
#541=DIRECTION('',(-6.66133814775094E-16,0.,-1.));
#542=DIRECTION('center_axis',(1.,-4.16599939628294E-33,0.));
#543=DIRECTION('ref_axis',(4.16599939628294E-33,1.,0.));
#544=DIRECTION('',(0.,0.,1.));
#545=DIRECTION('',(0.,0.,-1.));
#546=DIRECTION('center_axis',(0.,1.,0.));
#547=DIRECTION('ref_axis',(-1.,0.,0.));
#548=DIRECTION('center_axis',(0.,-1.,0.));
#549=DIRECTION('ref_axis',(1.,0.,0.));
#550=DIRECTION('',(0.,0.,1.));
#551=DIRECTION('center_axis',(-1.,0.,0.));
#552=DIRECTION('ref_axis',(0.,-1.,0.));
#553=CARTESIAN_POINT('',(0.,0.,0.));
#554=CARTESIAN_POINT('Origin',(-1.25,44.,-21.5));
#555=CARTESIAN_POINT('',(1.87469972832732E-31,45.,-20.5));
#556=CARTESIAN_POINT('',(1.79137974040166E-31,43.,-22.5));
#557=CARTESIAN_POINT('',(0.,38.375,-27.125));
#558=CARTESIAN_POINT('',(-5.,43.,-22.5));
#559=CARTESIAN_POINT('',(-1.25,43.,-22.5));
#560=CARTESIAN_POINT('',(-5.,45.,-20.5));
#561=CARTESIAN_POINT('',(-5.,49.625,-15.875));
#562=CARTESIAN_POINT('',(-1.25,45.,-20.5));
#563=CARTESIAN_POINT('Origin',(-5.,45.,0.));
#564=CARTESIAN_POINT('',(-5.,5.,-22.5));
#565=CARTESIAN_POINT('',(-5.,45.,-22.5));
#566=CARTESIAN_POINT('',(-5.,5.,22.5));
#567=CARTESIAN_POINT('',(-5.,5.,0.));
#568=CARTESIAN_POINT('',(-5.,43.,22.5));
#569=CARTESIAN_POINT('',(-5.,45.,22.5));
#570=CARTESIAN_POINT('',(-5.,45.,20.5));
#571=CARTESIAN_POINT('',(-5.,49.625,15.875));
#572=CARTESIAN_POINT('',(-5.,45.,0.));
#573=CARTESIAN_POINT('',(-5.,35.5,-4.25));
#574=CARTESIAN_POINT('',(-5.,35.5,4.25000000000001));
#575=CARTESIAN_POINT('Origin',(-5.,35.5,4.44089209850063E-15));
#576=CARTESIAN_POINT('',(-5.,15.5,4.25));
#577=CARTESIAN_POINT('',(-5.,30.25,4.25));
#578=CARTESIAN_POINT('',(-5.,15.5,-4.25));
#579=CARTESIAN_POINT('Origin',(-5.,15.5,0.));
#580=CARTESIAN_POINT('',(-5.,40.25,-4.25));
#581=CARTESIAN_POINT('Origin',(-2.5,22.5,-22.5));
#582=CARTESIAN_POINT('',(0.,0.,-22.5));
#583=CARTESIAN_POINT('',(0.,0.,-22.5));
#584=CARTESIAN_POINT('',(-43.,0.,-22.5));
#585=CARTESIAN_POINT('',(-45.,0.,-22.5));
#586=CARTESIAN_POINT('',(-43.,5.,-22.5));
#587=CARTESIAN_POINT('',(-43.,13.75,-22.5));
#588=CARTESIAN_POINT('',(0.,5.00000000000001,-22.5));
#589=CARTESIAN_POINT('Origin',(-44.,13.75,-21.5));
#590=CARTESIAN_POINT('',(-45.,5.,-20.5));
#591=CARTESIAN_POINT('',(-38.375,5.,-27.125));
#592=CARTESIAN_POINT('',(-45.,0.,-20.5));
#593=CARTESIAN_POINT('',(-49.625,0.,-15.875));
#594=CARTESIAN_POINT('',(-45.,13.75,-20.5));
#595=CARTESIAN_POINT('Origin',(0.,5.00000000000001,0.));
#596=CARTESIAN_POINT('',(-45.,5.,20.5));
#597=CARTESIAN_POINT('',(-45.,5.,0.));
#598=CARTESIAN_POINT('',(-43.,5.,22.5));
#599=CARTESIAN_POINT('',(-38.375,5.,27.125));
#600=CARTESIAN_POINT('',(0.,5.00000000000001,22.5));
#601=CARTESIAN_POINT('',(-26.75,5.,-10.));
#602=CARTESIAN_POINT('',(-18.25,5.,-10.));
#603=CARTESIAN_POINT('Origin',(-22.5,5.00000000000001,-10.));
#604=CARTESIAN_POINT('',(-18.25,5.,10.));
#605=CARTESIAN_POINT('',(-18.25,5.,5.));
#606=CARTESIAN_POINT('',(-26.75,5.,10.));
#607=CARTESIAN_POINT('Origin',(-22.5,5.00000000000001,10.));
#608=CARTESIAN_POINT('',(-26.75,5.,-4.99999999999999));
#609=CARTESIAN_POINT('Origin',(-44.,13.75,21.5));
#610=CARTESIAN_POINT('',(-45.,0.,20.5));
#611=CARTESIAN_POINT('',(-43.,0.,22.5));
#612=CARTESIAN_POINT('',(-49.625,0.,15.875));
#613=CARTESIAN_POINT('',(-43.,13.75,22.5));
#614=CARTESIAN_POINT('',(-45.,13.75,20.5));
#615=CARTESIAN_POINT('Origin',(-2.5,22.5,22.5));
#616=CARTESIAN_POINT('',(0.,0.,22.5));
#617=CARTESIAN_POINT('',(-45.,0.,22.5));
#618=CARTESIAN_POINT('',(0.,43.,22.5));
#619=CARTESIAN_POINT('',(0.,0.,22.5));
#620=CARTESIAN_POINT('',(-1.25,43.,22.5));
#621=CARTESIAN_POINT('Origin',(-1.25,44.,21.5));
#622=CARTESIAN_POINT('',(1.87469972832732E-31,45.,20.5));
#623=CARTESIAN_POINT('',(0.,38.375,27.125));
#624=CARTESIAN_POINT('',(-1.25,45.,20.5));
#625=CARTESIAN_POINT('Origin',(6.45729906423855E-32,15.5,0.));
#626=CARTESIAN_POINT('',(6.45729906423855E-32,15.5,4.25));
#627=CARTESIAN_POINT('',(6.45729906423855E-32,15.5,4.25));
#628=CARTESIAN_POINT('',(6.45729906423855E-32,15.5,-4.25));
#629=CARTESIAN_POINT('Origin',(0.,15.5,0.));
#630=CARTESIAN_POINT('',(6.45729906423855E-32,15.5,-4.25));
#631=CARTESIAN_POINT('Origin',(1.47892978568044E-31,35.5,-4.25));
#632=CARTESIAN_POINT('',(1.47892978568044E-31,35.5,-4.25));
#633=CARTESIAN_POINT('',(7.39464892840221E-32,17.75,-4.25));
#634=CARTESIAN_POINT('',(1.47892978568044E-31,35.5,-4.25));
#635=CARTESIAN_POINT('Origin',(1.47892978568044E-31,35.5,4.44089209850063E-15));
#636=CARTESIAN_POINT('',(1.47892978568044E-31,35.5,4.25000000000001));
#637=CARTESIAN_POINT('Origin',(0.,35.5,4.44089209850063E-15));
#638=CARTESIAN_POINT('',(1.47892978568044E-31,35.5,4.25000000000001));
#639=CARTESIAN_POINT('Origin',(6.45729906423855E-32,15.5,4.25));
#640=CARTESIAN_POINT('',(3.22864953211928E-32,7.75,4.25));
#641=CARTESIAN_POINT('Origin',(-22.5,0.,10.));
#642=CARTESIAN_POINT('',(-18.25,0.,10.));
#643=CARTESIAN_POINT('',(-18.25,0.,10.));
#644=CARTESIAN_POINT('',(-26.75,0.,10.));
#645=CARTESIAN_POINT('Origin',(-22.5,0.,10.));
#646=CARTESIAN_POINT('',(-26.75,0.,10.));
#647=CARTESIAN_POINT('Origin',(-26.75,0.,-10.));
#648=CARTESIAN_POINT('',(-26.75,0.,-10.));
#649=CARTESIAN_POINT('',(-26.75,0.,-5.00000000000001));
#650=CARTESIAN_POINT('',(-26.75,0.,-10.));
#651=CARTESIAN_POINT('Origin',(-22.5,0.,-10.));
#652=CARTESIAN_POINT('',(-18.25,0.,-10.));
#653=CARTESIAN_POINT('Origin',(-22.5,0.,-10.));
#654=CARTESIAN_POINT('',(-18.25,0.,-10.));
#655=CARTESIAN_POINT('Origin',(-18.25,0.,10.));
#656=CARTESIAN_POINT('',(-18.25,0.,4.99999999999999));
#657=CARTESIAN_POINT('Origin',(0.,0.,0.));
#658=CARTESIAN_POINT('',(1.87469972832732E-31,45.,0.));
#659=CARTESIAN_POINT('',(0.,0.,0.));
#660=CARTESIAN_POINT('Origin',(0.,45.,0.));
#661=CARTESIAN_POINT('Origin',(-45.,0.,0.));
#662=CARTESIAN_POINT('',(-45.,0.,0.));
#663=CARTESIAN_POINT('Origin',(-45.,5.,0.));
#664=UNCERTAINTY_MEASURE_WITH_UNIT(LENGTH_MEASURE(0.01),#668,
'DISTANCE_ACCURACY_VALUE',
'Maximum model space distance between geometric entities at asserted c
onnectivities');
#665=UNCERTAINTY_MEASURE_WITH_UNIT(LENGTH_MEASURE(0.01),#668,
'DISTANCE_ACCURACY_VALUE',
'Maximum model space distance between geometric entities at asserted c
onnectivities');
#666=(
GEOMETRIC_REPRESENTATION_CONTEXT(3)
GLOBAL_UNCERTAINTY_ASSIGNED_CONTEXT((#664))
GLOBAL_UNIT_ASSIGNED_CONTEXT((#668,#671,#670))
REPRESENTATION_CONTEXT('','3D')
);
#667=(
GEOMETRIC_REPRESENTATION_CONTEXT(3)
GLOBAL_UNCERTAINTY_ASSIGNED_CONTEXT((#665))
GLOBAL_UNIT_ASSIGNED_CONTEXT((#668,#671,#670))
REPRESENTATION_CONTEXT('','3D')
);
#668=(
LENGTH_UNIT()
NAMED_UNIT(*)
SI_UNIT(.MILLI.,.METRE.)
);
#669=(
LENGTH_UNIT()
NAMED_UNIT(*)
SI_UNIT(.CENTI.,.METRE.)
);
#670=(
NAMED_UNIT(*)
SI_UNIT($,.STERADIAN.)
SOLID_ANGLE_UNIT()
);
#671=(
NAMED_UNIT(*)
PLANE_ANGLE_UNIT()
SI_UNIT($,.RADIAN.)
);
#672=SHAPE_DEFINITION_REPRESENTATION(#673,#674);
#673=PRODUCT_DEFINITION_SHAPE('',$,#676);
#674=SHAPE_REPRESENTATION('',(#420),#666);
#675=PRODUCT_DEFINITION_CONTEXT('part definition',#680,'design');
#676=PRODUCT_DEFINITION('81597',
'81597 KriTec Stahlwinkel 10 45x45x45x5 mit Langl\X\F6chern 90\X\B0 ve
rsetzt, schwarz',#677,#675);
#677=PRODUCT_DEFINITION_FORMATION('',$,#682);
#678=PRODUCT_RELATED_PRODUCT_CATEGORY(
'81597 KriTec Stahlwinkel 10 45x45x45x5 mit Langl\X\F6chern 90\X\B0 ve
rsetzt, schwarz',
'81597 KriTec Stahlwinkel 10 45x45x45x5 mit Langl\X\F6chern 90\X\B0 ve
rsetzt, schwarz',(#682));
#679=APPLICATION_PROTOCOL_DEFINITION('international standard',
'automotive_design',2009,#680);
#680=APPLICATION_CONTEXT(
'Core Data for Automotive Mechanical Design Process');
#681=PRODUCT_CONTEXT('part definition',#680,'mechanical');
#682=PRODUCT('81597',
'81597 KriTec Stahlwinkel 10 45x45x45x5 mit Langl\X\F6chern 90\X\B0 ve
rsetzt, schwarz',
'KriTec Stahlwinkel 10 45x45x45x5 mit Langl\X\F6chern 90\X\B0 versetzt
, schwarz',(#681));
#683=PRESENTATION_STYLE_ASSIGNMENT((#684));
#684=SURFACE_STYLE_USAGE(.BOTH.,#685);
#685=SURFACE_SIDE_STYLE('',(#686));
#686=SURFACE_STYLE_FILL_AREA(#687);
#687=FILL_AREA_STYLE('',(#688));
#688=FILL_AREA_STYLE_COLOUR('',#689);
#689=COLOUR_RGB('',0.250980392156863,0.250980392156863,0.250980392156863);
ENDSEC;
END-ISO-10303-21;
