ISO-10303-21;
HEADER;
/* Generated by software containing ST-Developer
 * from STEP Tools, Inc. (www.steptools.com) 
 */

FILE_DESCRIPTION(
/* description */ (''),
/* implementation_level */ '2;1');

FILE_NAME(
/* name */ 
'S:\\Bilder_neu\\81551_KriTec_Lasche_10_90x45x5_schwarz\\Inventordatei
en\\81551_KriTec_Lasche_10_90x45x5_schwarz.stp',
/* time_stamp */ '2014-06-04T11:54:01+02:00',
/* author */ ('kostic'),
/* organization */ (''),
/* preprocessor_version */ 'ST-DEVELOPER v15.2',
/* originating_system */ 'Autodesk Inventor 2014',
/* authorisation */ '');

FILE_SCHEMA (('AUTOMOTIVE_DESIGN { 1 0 10303 214 3 1 1 }'));
ENDSEC;

DATA;
#10=SHAPE_REPRESENTATION_RELATIONSHIP('SRR','None',#431,#11);
#11=ADVANCED_BREP_SHAPE_REPRESENTATION($,(#266),#422);
#12=CYLINDRICAL_SURFACE($,#280,4.25);
#13=CYLINDRICAL_SURFACE($,#284,4.25);
#14=CONICAL_SURFACE($,#278,6.375,45.);
#15=CONICAL_SURFACE($,#282,6.375,45.);
#16=FACE_BOUND($,#46,.T.);
#17=FACE_BOUND($,#47,.T.);
#18=FACE_BOUND($,#48,.T.);
#19=FACE_BOUND($,#55,.T.);
#20=FACE_BOUND($,#57,.T.);
#21=FACE_BOUND($,#59,.T.);
#22=FACE_BOUND($,#61,.T.);
#23=FACE_BOUND($,#64,.T.);
#24=FACE_BOUND($,#65,.T.);
#25=CIRCLE($,#271,8.5);
#26=CIRCLE($,#272,8.5);
#27=CIRCLE($,#279,4.25);
#28=CIRCLE($,#281,4.25);
#29=CIRCLE($,#283,4.25);
#30=CIRCLE($,#285,4.25);
#31=FACE_OUTER_BOUND($,#44,.T.);
#32=FACE_OUTER_BOUND($,#45,.T.);
#33=FACE_OUTER_BOUND($,#49,.T.);
#34=FACE_OUTER_BOUND($,#50,.T.);
#35=FACE_OUTER_BOUND($,#51,.T.);
#36=FACE_OUTER_BOUND($,#52,.T.);
#37=FACE_OUTER_BOUND($,#53,.T.);
#38=FACE_OUTER_BOUND($,#54,.T.);
#39=FACE_OUTER_BOUND($,#56,.T.);
#40=FACE_OUTER_BOUND($,#58,.T.);
#41=FACE_OUTER_BOUND($,#60,.T.);
#42=FACE_OUTER_BOUND($,#62,.T.);
#43=FACE_OUTER_BOUND($,#63,.T.);
#44=EDGE_LOOP($,(#166,#167,#168,#169));
#45=EDGE_LOOP($,(#170,#171,#172,#173));
#46=EDGE_LOOP($,(#174));
#47=EDGE_LOOP($,(#175));
#48=EDGE_LOOP($,(#176,#177,#178,#179,#180,#181,#182,#183));
#49=EDGE_LOOP($,(#184,#185,#186,#187));
#50=EDGE_LOOP($,(#188,#189,#190,#191));
#51=EDGE_LOOP($,(#192,#193,#194,#195));
#52=EDGE_LOOP($,(#196,#197,#198,#199));
#53=EDGE_LOOP($,(#200,#201,#202,#203));
#54=EDGE_LOOP($,(#204));
#55=EDGE_LOOP($,(#205));
#56=EDGE_LOOP($,(#206));
#57=EDGE_LOOP($,(#207));
#58=EDGE_LOOP($,(#208));
#59=EDGE_LOOP($,(#209));
#60=EDGE_LOOP($,(#210));
#61=EDGE_LOOP($,(#211));
#62=EDGE_LOOP($,(#212,#213,#214,#215));
#63=EDGE_LOOP($,(#216,#217,#218,#219,#220,#221,#222,#223));
#64=EDGE_LOOP($,(#224));
#65=EDGE_LOOP($,(#225));
#66=LINE($,#358,#90);
#67=LINE($,#360,#91);
#68=LINE($,#362,#92);
#69=LINE($,#363,#93);
#70=LINE($,#366,#94);
#71=LINE($,#368,#95);
#72=LINE($,#369,#96);
#73=LINE($,#376,#97);
#74=LINE($,#378,#98);
#75=LINE($,#380,#99);
#76=LINE($,#382,#100);
#77=LINE($,#384,#101);
#78=LINE($,#385,#102);
#79=LINE($,#388,#103);
#80=LINE($,#389,#104);
#81=LINE($,#392,#105);
#82=LINE($,#393,#106);
#83=LINE($,#396,#107);
#84=LINE($,#397,#108);
#85=LINE($,#400,#109);
#86=LINE($,#401,#110);
#87=LINE($,#404,#111);
#88=LINE($,#405,#112);
#89=LINE($,#419,#113);
#90=VECTOR($,#292,5.65685424949239);
#91=VECTOR($,#293,5.);
#92=VECTOR($,#294,5.65685424949239);
#93=VECTOR($,#295,5.);
#94=VECTOR($,#298,82.);
#95=VECTOR($,#299,5.);
#96=VECTOR($,#300,82.);
#97=VECTOR($,#307,37.);
#98=VECTOR($,#308,5.65685424949239);
#99=VECTOR($,#309,82.);
#100=VECTOR($,#310,5.65685424949239);
#101=VECTOR($,#311,37.);
#102=VECTOR($,#312,5.65685424949239);
#103=VECTOR($,#315,5.);
#104=VECTOR($,#316,5.65685424949239);
#105=VECTOR($,#319,5.);
#106=VECTOR($,#320,37.);
#107=VECTOR($,#323,5.);
#108=VECTOR($,#324,5.65685424949239);
#109=VECTOR($,#327,5.);
#110=VECTOR($,#328,82.);
#111=VECTOR($,#331,5.);
#112=VECTOR($,#332,5.65685424949239);
#113=VECTOR($,#351,37.);
#114=VERTEX_POINT($,#356);
#115=VERTEX_POINT($,#357);
#116=VERTEX_POINT($,#359);
#117=VERTEX_POINT($,#361);
#118=VERTEX_POINT($,#365);
#119=VERTEX_POINT($,#367);
#120=VERTEX_POINT($,#371);
#121=VERTEX_POINT($,#373);
#122=VERTEX_POINT($,#375);
#123=VERTEX_POINT($,#377);
#124=VERTEX_POINT($,#379);
#125=VERTEX_POINT($,#381);
#126=VERTEX_POINT($,#383);
#127=VERTEX_POINT($,#387);
#128=VERTEX_POINT($,#391);
#129=VERTEX_POINT($,#395);
#130=VERTEX_POINT($,#399);
#131=VERTEX_POINT($,#403);
#132=VERTEX_POINT($,#407);
#133=VERTEX_POINT($,#410);
#134=VERTEX_POINT($,#413);
#135=VERTEX_POINT($,#416);
#136=EDGE_CURVE($,#114,#115,#66,.T.);
#137=EDGE_CURVE($,#115,#116,#67,.T.);
#138=EDGE_CURVE($,#116,#117,#68,.T.);
#139=EDGE_CURVE($,#117,#114,#69,.T.);
#140=EDGE_CURVE($,#115,#118,#70,.T.);
#141=EDGE_CURVE($,#119,#118,#71,.T.);
#142=EDGE_CURVE($,#116,#119,#72,.T.);
#143=EDGE_CURVE($,#120,#120,#25,.T.);
#144=EDGE_CURVE($,#121,#121,#26,.T.);
#145=EDGE_CURVE($,#122,#114,#73,.T.);
#146=EDGE_CURVE($,#123,#122,#74,.T.);
#147=EDGE_CURVE($,#124,#123,#75,.T.);
#148=EDGE_CURVE($,#125,#124,#76,.T.);
#149=EDGE_CURVE($,#126,#125,#77,.T.);
#150=EDGE_CURVE($,#118,#126,#78,.T.);
#151=EDGE_CURVE($,#126,#127,#79,.T.);
#152=EDGE_CURVE($,#127,#119,#80,.T.);
#153=EDGE_CURVE($,#128,#125,#81,.T.);
#154=EDGE_CURVE($,#127,#128,#82,.T.);
#155=EDGE_CURVE($,#124,#129,#83,.T.);
#156=EDGE_CURVE($,#129,#128,#84,.T.);
#157=EDGE_CURVE($,#130,#123,#85,.T.);
#158=EDGE_CURVE($,#129,#130,#86,.T.);
#159=EDGE_CURVE($,#122,#131,#87,.T.);
#160=EDGE_CURVE($,#131,#130,#88,.T.);
#161=EDGE_CURVE($,#132,#132,#27,.T.);
#162=EDGE_CURVE($,#133,#133,#28,.T.);
#163=EDGE_CURVE($,#134,#134,#29,.T.);
#164=EDGE_CURVE($,#135,#135,#30,.T.);
#165=EDGE_CURVE($,#131,#117,#89,.T.);
#166=ORIENTED_EDGE($,*,*,#136,.T.);
#167=ORIENTED_EDGE($,*,*,#137,.T.);
#168=ORIENTED_EDGE($,*,*,#138,.T.);
#169=ORIENTED_EDGE($,*,*,#139,.T.);
#170=ORIENTED_EDGE($,*,*,#137,.F.);
#171=ORIENTED_EDGE($,*,*,#140,.T.);
#172=ORIENTED_EDGE($,*,*,#141,.F.);
#173=ORIENTED_EDGE($,*,*,#142,.F.);
#174=ORIENTED_EDGE($,*,*,#143,.T.);
#175=ORIENTED_EDGE($,*,*,#144,.T.);
#176=ORIENTED_EDGE($,*,*,#136,.F.);
#177=ORIENTED_EDGE($,*,*,#145,.F.);
#178=ORIENTED_EDGE($,*,*,#146,.F.);
#179=ORIENTED_EDGE($,*,*,#147,.F.);
#180=ORIENTED_EDGE($,*,*,#148,.F.);
#181=ORIENTED_EDGE($,*,*,#149,.F.);
#182=ORIENTED_EDGE($,*,*,#150,.F.);
#183=ORIENTED_EDGE($,*,*,#140,.F.);
#184=ORIENTED_EDGE($,*,*,#150,.T.);
#185=ORIENTED_EDGE($,*,*,#151,.T.);
#186=ORIENTED_EDGE($,*,*,#152,.T.);
#187=ORIENTED_EDGE($,*,*,#141,.T.);
#188=ORIENTED_EDGE($,*,*,#151,.F.);
#189=ORIENTED_EDGE($,*,*,#149,.T.);
#190=ORIENTED_EDGE($,*,*,#153,.F.);
#191=ORIENTED_EDGE($,*,*,#154,.F.);
#192=ORIENTED_EDGE($,*,*,#148,.T.);
#193=ORIENTED_EDGE($,*,*,#155,.T.);
#194=ORIENTED_EDGE($,*,*,#156,.T.);
#195=ORIENTED_EDGE($,*,*,#153,.T.);
#196=ORIENTED_EDGE($,*,*,#155,.F.);
#197=ORIENTED_EDGE($,*,*,#147,.T.);
#198=ORIENTED_EDGE($,*,*,#157,.F.);
#199=ORIENTED_EDGE($,*,*,#158,.F.);
#200=ORIENTED_EDGE($,*,*,#146,.T.);
#201=ORIENTED_EDGE($,*,*,#159,.T.);
#202=ORIENTED_EDGE($,*,*,#160,.T.);
#203=ORIENTED_EDGE($,*,*,#157,.T.);
#204=ORIENTED_EDGE($,*,*,#143,.F.);
#205=ORIENTED_EDGE($,*,*,#161,.F.);
#206=ORIENTED_EDGE($,*,*,#162,.F.);
#207=ORIENTED_EDGE($,*,*,#161,.T.);
#208=ORIENTED_EDGE($,*,*,#144,.F.);
#209=ORIENTED_EDGE($,*,*,#163,.F.);
#210=ORIENTED_EDGE($,*,*,#164,.F.);
#211=ORIENTED_EDGE($,*,*,#163,.T.);
#212=ORIENTED_EDGE($,*,*,#139,.F.);
#213=ORIENTED_EDGE($,*,*,#165,.F.);
#214=ORIENTED_EDGE($,*,*,#159,.F.);
#215=ORIENTED_EDGE($,*,*,#145,.T.);
#216=ORIENTED_EDGE($,*,*,#138,.F.);
#217=ORIENTED_EDGE($,*,*,#142,.T.);
#218=ORIENTED_EDGE($,*,*,#152,.F.);
#219=ORIENTED_EDGE($,*,*,#154,.T.);
#220=ORIENTED_EDGE($,*,*,#156,.F.);
#221=ORIENTED_EDGE($,*,*,#158,.T.);
#222=ORIENTED_EDGE($,*,*,#160,.F.);
#223=ORIENTED_EDGE($,*,*,#165,.T.);
#224=ORIENTED_EDGE($,*,*,#162,.T.);
#225=ORIENTED_EDGE($,*,*,#164,.T.);
#226=PLANE($,#268);
#227=PLANE($,#269);
#228=PLANE($,#270);
#229=PLANE($,#273);
#230=PLANE($,#274);
#231=PLANE($,#275);
#232=PLANE($,#276);
#233=PLANE($,#277);
#234=PLANE($,#286);
#235=PLANE($,#287);
#236=STYLED_ITEM($,(#440),#251);
#237=STYLED_ITEM($,(#440),#252);
#238=STYLED_ITEM($,(#440),#253);
#239=STYLED_ITEM($,(#440),#254);
#240=STYLED_ITEM($,(#440),#255);
#241=STYLED_ITEM($,(#440),#256);
#242=STYLED_ITEM($,(#440),#257);
#243=STYLED_ITEM($,(#440),#258);
#244=STYLED_ITEM($,(#440),#259);
#245=STYLED_ITEM($,(#440),#260);
#246=STYLED_ITEM($,(#440),#261);
#247=STYLED_ITEM($,(#440),#262);
#248=STYLED_ITEM($,(#440),#263);
#249=STYLED_ITEM($,(#440),#264);
#250=STYLED_ITEM($,(#439),#266);
#251=ADVANCED_FACE($,(#31),#226,.T.);
#252=ADVANCED_FACE($,(#32),#227,.T.);
#253=ADVANCED_FACE($,(#16,#17,#18),#228,.T.);
#254=ADVANCED_FACE($,(#33),#229,.T.);
#255=ADVANCED_FACE($,(#34),#230,.T.);
#256=ADVANCED_FACE($,(#35),#231,.T.);
#257=ADVANCED_FACE($,(#36),#232,.T.);
#258=ADVANCED_FACE($,(#37),#233,.T.);
#259=ADVANCED_FACE($,(#38,#19),#14,.F.);
#260=ADVANCED_FACE($,(#39,#20),#12,.F.);
#261=ADVANCED_FACE($,(#40,#21),#15,.F.);
#262=ADVANCED_FACE($,(#41,#22),#13,.F.);
#263=ADVANCED_FACE($,(#42),#234,.T.);
#264=ADVANCED_FACE($,(#43,#23,#24),#235,.F.);
#265=CLOSED_SHELL($,(#251,#252,#253,#254,#255,#256,#257,#258,#259,#260,
#261,#262,#263,#264));
#266=MANIFOLD_SOLID_BREP('Volumenk\X\F6rper1',#265);
#267=AXIS2_PLACEMENT_3D('placement',#354,#288,#289);
#268=AXIS2_PLACEMENT_3D($,#355,#290,#291);
#269=AXIS2_PLACEMENT_3D($,#364,#296,#297);
#270=AXIS2_PLACEMENT_3D($,#370,#301,#302);
#271=AXIS2_PLACEMENT_3D($,#372,#303,#304);
#272=AXIS2_PLACEMENT_3D($,#374,#305,#306);
#273=AXIS2_PLACEMENT_3D($,#386,#313,#314);
#274=AXIS2_PLACEMENT_3D($,#390,#317,#318);
#275=AXIS2_PLACEMENT_3D($,#394,#321,#322);
#276=AXIS2_PLACEMENT_3D($,#398,#325,#326);
#277=AXIS2_PLACEMENT_3D($,#402,#329,#330);
#278=AXIS2_PLACEMENT_3D($,#406,#333,#334);
#279=AXIS2_PLACEMENT_3D($,#408,#335,#336);
#280=AXIS2_PLACEMENT_3D($,#409,#337,#338);
#281=AXIS2_PLACEMENT_3D($,#411,#339,#340);
#282=AXIS2_PLACEMENT_3D($,#412,#341,#342);
#283=AXIS2_PLACEMENT_3D($,#414,#343,#344);
#284=AXIS2_PLACEMENT_3D($,#415,#345,#346);
#285=AXIS2_PLACEMENT_3D($,#417,#347,#348);
#286=AXIS2_PLACEMENT_3D($,#418,#349,#350);
#287=AXIS2_PLACEMENT_3D($,#420,#352,#353);
#288=DIRECTION('axis',(0.,0.,1.));
#289=DIRECTION('refdir',(1.,0.,0.));
#290=DIRECTION('center_axis',(0.707106781186547,-0.707106781186548,0.));
#291=DIRECTION('ref_axis',(0.,0.,-1.));
#292=DIRECTION($,(-0.707106781186548,-0.707106781186547,0.));
#293=DIRECTION($,(0.,0.,-1.));
#294=DIRECTION($,(0.707106781186548,0.707106781186547,0.));
#295=DIRECTION($,(0.,0.,1.));
#296=DIRECTION('center_axis',(0.,-1.,0.));
#297=DIRECTION('ref_axis',(0.,0.,-1.));
#298=DIRECTION($,(-1.,0.,0.));
#299=DIRECTION($,(0.,0.,1.));
#300=DIRECTION($,(-1.,0.,0.));
#301=DIRECTION('center_axis',(0.,0.,1.));
#302=DIRECTION('ref_axis',(1.,0.,0.));
#303=DIRECTION('center_axis',(0.,0.,-1.));
#304=DIRECTION('ref_axis',(1.,0.,0.));
#305=DIRECTION('center_axis',(0.,0.,-1.));
#306=DIRECTION('ref_axis',(1.,0.,0.));
#307=DIRECTION($,(0.,-1.,0.));
#308=DIRECTION($,(0.707106781186548,-0.707106781186547,0.));
#309=DIRECTION($,(1.,0.,0.));
#310=DIRECTION($,(0.707106781186548,0.707106781186547,0.));
#311=DIRECTION($,(0.,1.,0.));
#312=DIRECTION($,(-0.707106781186548,0.707106781186547,0.));
#313=DIRECTION('center_axis',(-0.707106781186547,-0.707106781186548,0.));
#314=DIRECTION('ref_axis',(0.,0.,1.));
#315=DIRECTION($,(0.,0.,-1.));
#316=DIRECTION($,(0.707106781186548,-0.707106781186547,0.));
#317=DIRECTION('center_axis',(-1.,0.,0.));
#318=DIRECTION('ref_axis',(0.,0.,1.));
#319=DIRECTION($,(0.,0.,1.));
#320=DIRECTION($,(0.,1.,0.));
#321=DIRECTION('center_axis',(-0.707106781186547,0.707106781186548,0.));
#322=DIRECTION('ref_axis',(0.,0.,1.));
#323=DIRECTION($,(0.,0.,-1.));
#324=DIRECTION($,(-0.707106781186548,-0.707106781186547,0.));
#325=DIRECTION('center_axis',(0.,1.,0.));
#326=DIRECTION('ref_axis',(0.,0.,1.));
#327=DIRECTION($,(0.,0.,1.));
#328=DIRECTION($,(1.,0.,0.));
#329=DIRECTION('center_axis',(0.707106781186547,0.707106781186548,0.));
#330=DIRECTION('ref_axis',(0.,0.,-1.));
#331=DIRECTION($,(0.,0.,-1.));
#332=DIRECTION($,(-0.707106781186548,0.707106781186547,0.));
#333=DIRECTION('center_axis',(0.,0.,1.));
#334=DIRECTION('ref_axis',(1.,0.,0.));
#335=DIRECTION('center_axis',(0.,0.,1.));
#336=DIRECTION('ref_axis',(1.,0.,0.));
#337=DIRECTION('center_axis',(0.,0.,1.));
#338=DIRECTION('ref_axis',(1.,0.,0.));
#339=DIRECTION('center_axis',(0.,0.,1.));
#340=DIRECTION('ref_axis',(1.,0.,0.));
#341=DIRECTION('center_axis',(0.,0.,1.));
#342=DIRECTION('ref_axis',(1.,0.,0.));
#343=DIRECTION('center_axis',(0.,0.,1.));
#344=DIRECTION('ref_axis',(1.,0.,0.));
#345=DIRECTION('center_axis',(0.,0.,1.));
#346=DIRECTION('ref_axis',(1.,0.,0.));
#347=DIRECTION('center_axis',(0.,0.,1.));
#348=DIRECTION('ref_axis',(1.,0.,0.));
#349=DIRECTION('center_axis',(1.,0.,0.));
#350=DIRECTION('ref_axis',(0.,0.,-1.));
#351=DIRECTION($,(0.,-1.,0.));
#352=DIRECTION('center_axis',(0.,0.,1.));
#353=DIRECTION('ref_axis',(1.,0.,0.));
#354=CARTESIAN_POINT('',(0.,0.,0.));
#355=CARTESIAN_POINT('Origin',(43.,-20.5,0.));
#356=CARTESIAN_POINT('',(45.,-18.5,5.));
#357=CARTESIAN_POINT('',(41.,-22.5,5.));
#358=CARTESIAN_POINT($,(37.375,-26.125,5.));
#359=CARTESIAN_POINT('',(41.,-22.5,0.));
#360=CARTESIAN_POINT($,(41.,-22.5,0.));
#361=CARTESIAN_POINT('',(45.,-18.5,0.));
#362=CARTESIAN_POINT($,(37.375,-26.125,0.));
#363=CARTESIAN_POINT($,(45.,-18.5,0.));
#364=CARTESIAN_POINT('Origin',(45.,-22.5,0.));
#365=CARTESIAN_POINT('',(-41.,-22.5,5.));
#366=CARTESIAN_POINT($,(45.,-22.5,5.));
#367=CARTESIAN_POINT('',(-41.,-22.5,0.));
#368=CARTESIAN_POINT($,(-41.,-22.5,0.));
#369=CARTESIAN_POINT($,(45.,-22.5,0.));
#370=CARTESIAN_POINT('Origin',(0.,-3.16245346408378E-015,5.));
#371=CARTESIAN_POINT('',(31.,0.,5.));
#372=CARTESIAN_POINT('Origin',(22.5,0.,5.));
#373=CARTESIAN_POINT('',(-14.,0.,5.));
#374=CARTESIAN_POINT('Origin',(-22.5,0.,5.));
#375=CARTESIAN_POINT('',(45.,18.5,5.));
#376=CARTESIAN_POINT($,(45.,22.5,5.));
#377=CARTESIAN_POINT('',(41.,22.5,5.));
#378=CARTESIAN_POINT($,(37.375,26.125,5.));
#379=CARTESIAN_POINT('',(-41.,22.5,5.));
#380=CARTESIAN_POINT($,(-45.,22.5,5.));
#381=CARTESIAN_POINT('',(-45.,18.5,5.));
#382=CARTESIAN_POINT($,(-37.375,26.125,5.));
#383=CARTESIAN_POINT('',(-45.,-18.5,5.));
#384=CARTESIAN_POINT($,(-45.,-22.5,5.));
#385=CARTESIAN_POINT($,(-37.375,-26.125,5.));
#386=CARTESIAN_POINT('Origin',(-43.,-20.5,0.));
#387=CARTESIAN_POINT('',(-45.,-18.5,0.));
#388=CARTESIAN_POINT($,(-45.,-18.5,0.));
#389=CARTESIAN_POINT($,(-37.375,-26.125,0.));
#390=CARTESIAN_POINT('Origin',(-45.,-22.5,0.));
#391=CARTESIAN_POINT('',(-45.,18.5,0.));
#392=CARTESIAN_POINT($,(-45.,18.5,0.));
#393=CARTESIAN_POINT($,(-45.,-22.5,0.));
#394=CARTESIAN_POINT('Origin',(-43.,20.5,0.));
#395=CARTESIAN_POINT('',(-41.,22.5,0.));
#396=CARTESIAN_POINT($,(-41.,22.5,0.));
#397=CARTESIAN_POINT($,(-37.375,26.125,0.));
#398=CARTESIAN_POINT('Origin',(-45.,22.5,0.));
#399=CARTESIAN_POINT('',(41.,22.5,0.));
#400=CARTESIAN_POINT($,(41.,22.5,0.));
#401=CARTESIAN_POINT($,(-45.,22.5,0.));
#402=CARTESIAN_POINT('Origin',(43.,20.5,0.));
#403=CARTESIAN_POINT('',(45.,18.5,0.));
#404=CARTESIAN_POINT($,(45.,18.5,0.));
#405=CARTESIAN_POINT($,(37.375,26.125,0.));
#406=CARTESIAN_POINT('Origin',(22.5,0.,2.875));
#407=CARTESIAN_POINT('',(26.75,0.,0.749999999999999));
#408=CARTESIAN_POINT('Origin',(22.5,0.,0.749999999999993));
#409=CARTESIAN_POINT('Origin',(22.5,0.,-95.7472083980494));
#410=CARTESIAN_POINT('',(18.25,-5.20474889637625E-016,0.));
#411=CARTESIAN_POINT('Origin',(22.5,0.,0.));
#412=CARTESIAN_POINT('Origin',(-22.5,0.,2.875));
#413=CARTESIAN_POINT('',(-18.25,0.,0.749999999999999));
#414=CARTESIAN_POINT('Origin',(-22.5,0.,0.749999999999993));
#415=CARTESIAN_POINT('Origin',(-22.5,0.,-95.7472083980494));
#416=CARTESIAN_POINT('',(-26.75,-5.20474889637625E-016,0.));
#417=CARTESIAN_POINT('Origin',(-22.5,0.,0.));
#418=CARTESIAN_POINT('Origin',(45.,22.5,0.));
#419=CARTESIAN_POINT($,(45.,22.5,0.));
#420=CARTESIAN_POINT('Origin',(0.,-3.46524156170882E-015,0.));
#421=UNCERTAINTY_MEASURE_WITH_UNIT(LENGTH_MEASURE(0.01),#423,
'DISTANCE_ACCURACY_VALUE',
'Maximum model space distance between geometric entities at asserted c
onnectivities');
#422=(
GEOMETRIC_REPRESENTATION_CONTEXT(3)
GLOBAL_UNCERTAINTY_ASSIGNED_CONTEXT((#421))
GLOBAL_UNIT_ASSIGNED_CONTEXT((#423,#426,#424))
REPRESENTATION_CONTEXT('','3D')
);
#423=(
LENGTH_UNIT()
NAMED_UNIT(*)
SI_UNIT(.MILLI.,.METRE.)
);
#424=(
NAMED_UNIT(*)
SI_UNIT($,.STERADIAN.)
SOLID_ANGLE_UNIT()
);
#425=DIMENSIONAL_EXPONENTS(0.,0.,0.,0.,0.,0.,0.);
#426=(
CONVERSION_BASED_UNIT('degree',#428)
NAMED_UNIT(#425)
PLANE_ANGLE_UNIT()
);
#427=(
NAMED_UNIT(*)
PLANE_ANGLE_UNIT()
SI_UNIT($,.RADIAN.)
);
#428=PLANE_ANGLE_MEASURE_WITH_UNIT(PLANE_ANGLE_MEASURE(0.01745329252),#427);
#429=SHAPE_DEFINITION_REPRESENTATION(#430,#431);
#430=PRODUCT_DEFINITION_SHAPE('',$,#433);
#431=SHAPE_REPRESENTATION('',(#267),#422);
#432=PRODUCT_DEFINITION_CONTEXT('3D Mechanical Parts',#436,'design');
#433=PRODUCT_DEFINITION('81551_KriTec_Lasche_10_90x45x5_schwarz',
'81551_KriTec_Lasche_10_90x45x5_schwarz',#434,#432);
#434=PRODUCT_DEFINITION_FORMATION('',$,#438);
#435=APPLICATION_PROTOCOL_DEFINITION('international standard',
'automotive_design',2009,#436);
#436=APPLICATION_CONTEXT(
'Core Data for Automotive Mechanical Design Process');
#437=PRODUCT_CONTEXT('3D Mechanical Parts',#436,'mechanical');
#438=PRODUCT('81551_KriTec_Lasche_10_90x45x5_schwarz',
'81551_KriTec_Lasche_10_90x45x5_schwarz',$,(#437));
#439=PRESENTATION_STYLE_ASSIGNMENT((#441));
#440=PRESENTATION_STYLE_ASSIGNMENT((#442));
#441=SURFACE_STYLE_USAGE(.BOTH.,#443);
#442=SURFACE_STYLE_USAGE(.BOTH.,#444);
#443=SURFACE_SIDE_STYLE($,(#445));
#444=SURFACE_SIDE_STYLE($,(#446));
#445=SURFACE_STYLE_FILL_AREA(#447);
#446=SURFACE_STYLE_FILL_AREA(#448);
#447=FILL_AREA_STYLE($,(#449));
#448=FILL_AREA_STYLE($,(#450));
#449=FILL_AREA_STYLE_COLOUR($,#451);
#450=FILL_AREA_STYLE_COLOUR($,#452);
#451=COLOUR_RGB('',0.0196078431372549,0.0196078431372549,0.0196078431372549);
#452=COLOUR_RGB('',0.32156862745098,0.32156862745098,0.32156862745098);
ENDSEC;
END-ISO-10303-21;
