ISO-10303-21;
HEADER;
/* Generated by software containing ST-Developer
 * from STEP Tools, Inc. (www.steptools.com) 
 */

FILE_DESCRIPTION(
/* description */ (''),
/* implementation_level */ '2;1');

FILE_NAME(
/* name */ 
'S:\\Bilder_neu\\81516_KriTec_Aluwinkel_10_45x45x90x5\\Inventordateien
\\81516_KriTec_Aluwinkel_10_45x45x90x5.stp',
/* time_stamp */ '2014-09-08T14:03:06+02:00',
/* author */ ('kostic'),
/* organization */ (''),
/* preprocessor_version */ 'ST-DEVELOPER v15.2',
/* originating_system */ 'Autodesk Inventor 2014',
/* authorisation */ '');

FILE_SCHEMA (('AUTOMOTIVE_DESIGN { 1 0 10303 214 3 1 1 }'));
ENDSEC;

DATA;
#10=SHAPE_REPRESENTATION_RELATIONSHIP('SRR','None',#379,#11);
#11=ADVANCED_BREP_SHAPE_REPRESENTATION($,(#228),#370);
#12=STYLED_ITEM($,(#387),#228);
#13=LINE($,#334,#31);
#14=LINE($,#336,#32);
#15=LINE($,#338,#33);
#16=LINE($,#340,#34);
#17=LINE($,#342,#35);
#18=LINE($,#343,#36);
#19=LINE($,#346,#37);
#20=LINE($,#348,#38);
#21=LINE($,#349,#39);
#22=LINE($,#352,#40);
#23=LINE($,#353,#41);
#24=LINE($,#356,#42);
#25=LINE($,#357,#43);
#26=LINE($,#360,#44);
#27=LINE($,#361,#45);
#28=LINE($,#364,#46);
#29=LINE($,#365,#47);
#30=LINE($,#367,#48);
#31=VECTOR($,#278,45.);
#32=VECTOR($,#279,5.);
#33=VECTOR($,#280,40.);
#34=VECTOR($,#281,40.);
#35=VECTOR($,#282,5.);
#36=VECTOR($,#283,45.);
#37=VECTOR($,#286,90.);
#38=VECTOR($,#287,5.);
#39=VECTOR($,#288,90.);
#40=VECTOR($,#291,40.);
#41=VECTOR($,#292,90.);
#42=VECTOR($,#295,40.);
#43=VECTOR($,#296,90.);
#44=VECTOR($,#299,5.);
#45=VECTOR($,#300,90.);
#46=VECTOR($,#303,45.);
#47=VECTOR($,#304,90.);
#48=VECTOR($,#307,45.);
#49=PLANE($,#242);
#50=PLANE($,#243);
#51=PLANE($,#244);
#52=PLANE($,#245);
#53=PLANE($,#246);
#54=PLANE($,#247);
#55=PLANE($,#248);
#56=PLANE($,#249);
#57=FACE_BOUND($,#82,.T.);
#58=FACE_BOUND($,#84,.T.);
#59=FACE_BOUND($,#86,.T.);
#60=FACE_BOUND($,#88,.T.);
#61=FACE_BOUND($,#91,.T.);
#62=FACE_BOUND($,#92,.T.);
#63=FACE_BOUND($,#93,.T.);
#64=FACE_BOUND($,#94,.T.);
#65=FACE_BOUND($,#95,.T.);
#66=FACE_BOUND($,#96,.T.);
#67=FACE_BOUND($,#98,.T.);
#68=FACE_BOUND($,#99,.T.);
#69=FACE_BOUND($,#100,.T.);
#70=FACE_BOUND($,#101,.T.);
#71=FACE_BOUND($,#102,.T.);
#72=FACE_BOUND($,#103,.T.);
#73=FACE_OUTER_BOUND($,#81,.T.);
#74=FACE_OUTER_BOUND($,#83,.T.);
#75=FACE_OUTER_BOUND($,#85,.T.);
#76=FACE_OUTER_BOUND($,#87,.T.);
#77=FACE_OUTER_BOUND($,#89,.T.);
#78=FACE_OUTER_BOUND($,#90,.T.);
#79=FACE_OUTER_BOUND($,#97,.T.);
#80=FACE_OUTER_BOUND($,#104,.T.);
#81=EDGE_LOOP($,(#159));
#82=EDGE_LOOP($,(#160));
#83=EDGE_LOOP($,(#161));
#84=EDGE_LOOP($,(#162));
#85=EDGE_LOOP($,(#163));
#86=EDGE_LOOP($,(#164));
#87=EDGE_LOOP($,(#165));
#88=EDGE_LOOP($,(#166));
#89=EDGE_LOOP($,(#167,#168,#169,#170,#171,#172));
#90=EDGE_LOOP($,(#173,#174,#175,#176));
#91=EDGE_LOOP($,(#177));
#92=EDGE_LOOP($,(#178));
#93=EDGE_LOOP($,(#179,#180,#181,#182));
#94=EDGE_LOOP($,(#183));
#95=EDGE_LOOP($,(#184));
#96=EDGE_LOOP($,(#185,#186,#187,#188));
#97=EDGE_LOOP($,(#189,#190,#191,#192));
#98=EDGE_LOOP($,(#193));
#99=EDGE_LOOP($,(#194));
#100=EDGE_LOOP($,(#195,#196,#197,#198));
#101=EDGE_LOOP($,(#199));
#102=EDGE_LOOP($,(#200));
#103=EDGE_LOOP($,(#201,#202,#203,#204));
#104=EDGE_LOOP($,(#205,#206,#207,#208,#209,#210));
#105=CIRCLE($,#231,4.2);
#106=CIRCLE($,#232,4.2);
#107=CIRCLE($,#234,4.2);
#108=CIRCLE($,#235,4.2);
#109=CIRCLE($,#237,4.2);
#110=CIRCLE($,#238,4.2);
#111=CIRCLE($,#240,4.2);
#112=CIRCLE($,#241,4.2);
#113=VERTEX_POINT($,#312);
#114=VERTEX_POINT($,#314);
#115=VERTEX_POINT($,#317);
#116=VERTEX_POINT($,#319);
#117=VERTEX_POINT($,#322);
#118=VERTEX_POINT($,#324);
#119=VERTEX_POINT($,#327);
#120=VERTEX_POINT($,#329);
#121=VERTEX_POINT($,#332);
#122=VERTEX_POINT($,#333);
#123=VERTEX_POINT($,#335);
#124=VERTEX_POINT($,#337);
#125=VERTEX_POINT($,#339);
#126=VERTEX_POINT($,#341);
#127=VERTEX_POINT($,#345);
#128=VERTEX_POINT($,#347);
#129=VERTEX_POINT($,#351);
#130=VERTEX_POINT($,#355);
#131=VERTEX_POINT($,#359);
#132=VERTEX_POINT($,#363);
#133=EDGE_CURVE($,#113,#113,#105,.T.);
#134=EDGE_CURVE($,#114,#114,#106,.T.);
#135=EDGE_CURVE($,#115,#115,#107,.T.);
#136=EDGE_CURVE($,#116,#116,#108,.T.);
#137=EDGE_CURVE($,#117,#117,#109,.T.);
#138=EDGE_CURVE($,#118,#118,#110,.T.);
#139=EDGE_CURVE($,#119,#119,#111,.T.);
#140=EDGE_CURVE($,#120,#120,#112,.T.);
#141=EDGE_CURVE($,#121,#122,#13,.T.);
#142=EDGE_CURVE($,#122,#123,#14,.T.);
#143=EDGE_CURVE($,#123,#124,#15,.T.);
#144=EDGE_CURVE($,#124,#125,#16,.T.);
#145=EDGE_CURVE($,#125,#126,#17,.T.);
#146=EDGE_CURVE($,#126,#121,#18,.T.);
#147=EDGE_CURVE($,#127,#122,#19,.T.);
#148=EDGE_CURVE($,#128,#127,#20,.T.);
#149=EDGE_CURVE($,#128,#123,#21,.T.);
#150=EDGE_CURVE($,#129,#128,#22,.T.);
#151=EDGE_CURVE($,#129,#124,#23,.T.);
#152=EDGE_CURVE($,#130,#129,#24,.T.);
#153=EDGE_CURVE($,#130,#125,#25,.T.);
#154=EDGE_CURVE($,#131,#130,#26,.T.);
#155=EDGE_CURVE($,#131,#126,#27,.T.);
#156=EDGE_CURVE($,#132,#131,#28,.T.);
#157=EDGE_CURVE($,#121,#132,#29,.T.);
#158=EDGE_CURVE($,#127,#132,#30,.T.);
#159=ORIENTED_EDGE($,*,*,#133,.F.);
#160=ORIENTED_EDGE($,*,*,#134,.F.);
#161=ORIENTED_EDGE($,*,*,#135,.F.);
#162=ORIENTED_EDGE($,*,*,#136,.F.);
#163=ORIENTED_EDGE($,*,*,#137,.F.);
#164=ORIENTED_EDGE($,*,*,#138,.F.);
#165=ORIENTED_EDGE($,*,*,#139,.F.);
#166=ORIENTED_EDGE($,*,*,#140,.F.);
#167=ORIENTED_EDGE($,*,*,#141,.T.);
#168=ORIENTED_EDGE($,*,*,#142,.T.);
#169=ORIENTED_EDGE($,*,*,#143,.T.);
#170=ORIENTED_EDGE($,*,*,#144,.T.);
#171=ORIENTED_EDGE($,*,*,#145,.T.);
#172=ORIENTED_EDGE($,*,*,#146,.T.);
#173=ORIENTED_EDGE($,*,*,#147,.F.);
#174=ORIENTED_EDGE($,*,*,#148,.F.);
#175=ORIENTED_EDGE($,*,*,#149,.T.);
#176=ORIENTED_EDGE($,*,*,#142,.F.);
#177=ORIENTED_EDGE($,*,*,#137,.T.);
#178=ORIENTED_EDGE($,*,*,#139,.T.);
#179=ORIENTED_EDGE($,*,*,#149,.F.);
#180=ORIENTED_EDGE($,*,*,#150,.F.);
#181=ORIENTED_EDGE($,*,*,#151,.T.);
#182=ORIENTED_EDGE($,*,*,#143,.F.);
#183=ORIENTED_EDGE($,*,*,#133,.T.);
#184=ORIENTED_EDGE($,*,*,#135,.T.);
#185=ORIENTED_EDGE($,*,*,#151,.F.);
#186=ORIENTED_EDGE($,*,*,#152,.F.);
#187=ORIENTED_EDGE($,*,*,#153,.T.);
#188=ORIENTED_EDGE($,*,*,#144,.F.);
#189=ORIENTED_EDGE($,*,*,#153,.F.);
#190=ORIENTED_EDGE($,*,*,#154,.F.);
#191=ORIENTED_EDGE($,*,*,#155,.T.);
#192=ORIENTED_EDGE($,*,*,#145,.F.);
#193=ORIENTED_EDGE($,*,*,#134,.T.);
#194=ORIENTED_EDGE($,*,*,#136,.T.);
#195=ORIENTED_EDGE($,*,*,#155,.F.);
#196=ORIENTED_EDGE($,*,*,#156,.F.);
#197=ORIENTED_EDGE($,*,*,#157,.F.);
#198=ORIENTED_EDGE($,*,*,#146,.F.);
#199=ORIENTED_EDGE($,*,*,#138,.T.);
#200=ORIENTED_EDGE($,*,*,#140,.T.);
#201=ORIENTED_EDGE($,*,*,#157,.T.);
#202=ORIENTED_EDGE($,*,*,#158,.F.);
#203=ORIENTED_EDGE($,*,*,#147,.T.);
#204=ORIENTED_EDGE($,*,*,#141,.F.);
#205=ORIENTED_EDGE($,*,*,#158,.T.);
#206=ORIENTED_EDGE($,*,*,#156,.T.);
#207=ORIENTED_EDGE($,*,*,#154,.T.);
#208=ORIENTED_EDGE($,*,*,#152,.T.);
#209=ORIENTED_EDGE($,*,*,#150,.T.);
#210=ORIENTED_EDGE($,*,*,#148,.T.);
#211=CYLINDRICAL_SURFACE($,#230,4.2);
#212=CYLINDRICAL_SURFACE($,#233,4.2);
#213=CYLINDRICAL_SURFACE($,#236,4.2);
#214=CYLINDRICAL_SURFACE($,#239,4.2);
#215=ADVANCED_FACE($,(#73,#57),#211,.F.);
#216=ADVANCED_FACE($,(#74,#58),#212,.F.);
#217=ADVANCED_FACE($,(#75,#59),#213,.F.);
#218=ADVANCED_FACE($,(#76,#60),#214,.F.);
#219=ADVANCED_FACE($,(#77),#49,.T.);
#220=ADVANCED_FACE($,(#78),#50,.T.);
#221=ADVANCED_FACE($,(#61,#62,#63),#51,.T.);
#222=ADVANCED_FACE($,(#64,#65,#66),#52,.T.);
#223=ADVANCED_FACE($,(#79),#53,.T.);
#224=ADVANCED_FACE($,(#67,#68,#69),#54,.T.);
#225=ADVANCED_FACE($,(#70,#71,#72),#55,.T.);
#226=ADVANCED_FACE($,(#80),#56,.T.);
#227=CLOSED_SHELL($,(#215,#216,#217,#218,#219,#220,#221,#222,#223,#224,
#225,#226));
#228=MANIFOLD_SOLID_BREP('Volumenk\X\F6rper4',#227);
#229=AXIS2_PLACEMENT_3D('placement',#310,#250,#251);
#230=AXIS2_PLACEMENT_3D($,#311,#252,#253);
#231=AXIS2_PLACEMENT_3D($,#313,#254,#255);
#232=AXIS2_PLACEMENT_3D($,#315,#256,#257);
#233=AXIS2_PLACEMENT_3D($,#316,#258,#259);
#234=AXIS2_PLACEMENT_3D($,#318,#260,#261);
#235=AXIS2_PLACEMENT_3D($,#320,#262,#263);
#236=AXIS2_PLACEMENT_3D($,#321,#264,#265);
#237=AXIS2_PLACEMENT_3D($,#323,#266,#267);
#238=AXIS2_PLACEMENT_3D($,#325,#268,#269);
#239=AXIS2_PLACEMENT_3D($,#326,#270,#271);
#240=AXIS2_PLACEMENT_3D($,#328,#272,#273);
#241=AXIS2_PLACEMENT_3D($,#330,#274,#275);
#242=AXIS2_PLACEMENT_3D($,#331,#276,#277);
#243=AXIS2_PLACEMENT_3D($,#344,#284,#285);
#244=AXIS2_PLACEMENT_3D($,#350,#289,#290);
#245=AXIS2_PLACEMENT_3D($,#354,#293,#294);
#246=AXIS2_PLACEMENT_3D($,#358,#297,#298);
#247=AXIS2_PLACEMENT_3D($,#362,#301,#302);
#248=AXIS2_PLACEMENT_3D($,#366,#305,#306);
#249=AXIS2_PLACEMENT_3D($,#368,#308,#309);
#250=DIRECTION('axis',(0.,0.,1.));
#251=DIRECTION('refdir',(1.,0.,0.));
#252=DIRECTION('center_axis',(1.83697019872103E-016,-1.,0.));
#253=DIRECTION('ref_axis',(1.,1.83697019872103E-016,0.));
#254=DIRECTION('center_axis',(1.11022302462516E-016,-1.,0.));
#255=DIRECTION('ref_axis',(1.,1.83697019872103E-016,0.));
#256=DIRECTION('center_axis',(-1.83697019872103E-016,1.,0.));
#257=DIRECTION('ref_axis',(1.,1.83697019872103E-016,0.));
#258=DIRECTION('center_axis',(1.83697019872103E-016,-1.,0.));
#259=DIRECTION('ref_axis',(1.,1.83697019872103E-016,0.));
#260=DIRECTION('center_axis',(1.11022302462516E-016,-1.,0.));
#261=DIRECTION('ref_axis',(1.,1.83697019872103E-016,0.));
#262=DIRECTION('center_axis',(-1.83697019872103E-016,1.,0.));
#263=DIRECTION('ref_axis',(1.,1.83697019872103E-016,0.));
#264=DIRECTION('center_axis',(-1.,0.,0.));
#265=DIRECTION('ref_axis',(0.,0.,1.));
#266=DIRECTION('center_axis',(-1.,-1.11022302462516E-016,0.));
#267=DIRECTION('ref_axis',(0.,0.,1.));
#268=DIRECTION('center_axis',(1.,0.,0.));
#269=DIRECTION('ref_axis',(0.,0.,1.));
#270=DIRECTION('center_axis',(-1.,0.,0.));
#271=DIRECTION('ref_axis',(0.,0.,1.));
#272=DIRECTION('center_axis',(-1.,-1.11022302462516E-016,0.));
#273=DIRECTION('ref_axis',(0.,0.,1.));
#274=DIRECTION('center_axis',(1.,0.,0.));
#275=DIRECTION('ref_axis',(0.,0.,1.));
#276=DIRECTION('center_axis',(0.,0.,-1.));
#277=DIRECTION('ref_axis',(-1.,0.,0.));
#278=DIRECTION($,(0.,1.,0.));
#279=DIRECTION($,(1.,0.,0.));
#280=DIRECTION($,(1.11022302462516E-016,-1.,0.));
#281=DIRECTION($,(1.,1.11022302462516E-016,0.));
#282=DIRECTION($,(0.,-1.,0.));
#283=DIRECTION($,(-1.,-1.83697019872103E-016,0.));
#284=DIRECTION('center_axis',(0.,1.,0.));
#285=DIRECTION('ref_axis',(-1.,0.,0.));
#286=DIRECTION($,(0.,0.,-1.));
#287=DIRECTION($,(-1.,0.,0.));
#288=DIRECTION($,(0.,0.,-1.));
#289=DIRECTION('center_axis',(1.,1.11022302462516E-016,0.));
#290=DIRECTION('ref_axis',(-8.88178419700125E-017,1.,0.));
#291=DIRECTION($,(-1.11022302462516E-016,1.,0.));
#292=DIRECTION($,(0.,0.,-1.));
#293=DIRECTION('center_axis',(-1.11022302462516E-016,1.,0.));
#294=DIRECTION('ref_axis',(-1.,-8.88178419700125E-017,0.));
#295=DIRECTION($,(-1.,-1.11022302462516E-016,0.));
#296=DIRECTION($,(0.,0.,-1.));
#297=DIRECTION('center_axis',(1.,0.,0.));
#298=DIRECTION('ref_axis',(0.,1.,0.));
#299=DIRECTION($,(0.,1.,0.));
#300=DIRECTION($,(0.,0.,-1.));
#301=DIRECTION('center_axis',(1.83697019872103E-016,-1.,0.));
#302=DIRECTION('ref_axis',(1.,1.83697019872103E-016,0.));
#303=DIRECTION($,(1.,1.83697019872103E-016,0.));
#304=DIRECTION($,(0.,0.,1.));
#305=DIRECTION('center_axis',(-1.,0.,0.));
#306=DIRECTION('ref_axis',(0.,-1.,0.));
#307=DIRECTION($,(0.,-1.,0.));
#308=DIRECTION('center_axis',(0.,0.,1.));
#309=DIRECTION('ref_axis',(1.,0.,0.));
#310=CARTESIAN_POINT('',(0.,0.,0.));
#311=CARTESIAN_POINT('Origin',(22.5,110.227038425243,22.5));
#312=CARTESIAN_POINT('',(18.3,5.,22.5));
#313=CARTESIAN_POINT('Origin',(22.5,5.,22.5));
#314=CARTESIAN_POINT('',(26.7,4.90471043058515E-015,22.5));
#315=CARTESIAN_POINT('Origin',(22.5,0.,22.5));
#316=CARTESIAN_POINT('Origin',(22.5,110.227038425243,-22.5));
#317=CARTESIAN_POINT('',(18.3,5.,-22.5));
#318=CARTESIAN_POINT('Origin',(22.5,5.,-22.5));
#319=CARTESIAN_POINT('',(26.7,4.90471043058515E-015,-22.5));
#320=CARTESIAN_POINT('Origin',(22.5,0.,-22.5));
#321=CARTESIAN_POINT('Origin',(110.227038425243,22.5,-22.5));
#322=CARTESIAN_POINT('',(5.,22.5,-26.7));
#323=CARTESIAN_POINT('Origin',(5.,22.5,-22.5));
#324=CARTESIAN_POINT('',(0.,22.5,-18.3));
#325=CARTESIAN_POINT('Origin',(0.,22.5,-22.5));
#326=CARTESIAN_POINT('Origin',(110.227038425243,22.5,22.5));
#327=CARTESIAN_POINT('',(5.,22.5,18.3));
#328=CARTESIAN_POINT('Origin',(5.,22.5,22.5));
#329=CARTESIAN_POINT('',(0.,22.5,26.7));
#330=CARTESIAN_POINT('Origin',(0.,22.5,22.5));
#331=CARTESIAN_POINT('Origin',(13.6111111111111,13.6111111111111,-45.));
#332=CARTESIAN_POINT('',(0.,0.,-45.));
#333=CARTESIAN_POINT('',(0.,45.,-45.));
#334=CARTESIAN_POINT($,(0.,0.,-45.));
#335=CARTESIAN_POINT('',(5.,45.,-45.));
#336=CARTESIAN_POINT($,(0.,45.,-45.));
#337=CARTESIAN_POINT('',(5.,5.,-45.));
#338=CARTESIAN_POINT($,(5.,45.,-45.));
#339=CARTESIAN_POINT('',(45.,5.00000000000001,-45.));
#340=CARTESIAN_POINT($,(5.,5.,-45.));
#341=CARTESIAN_POINT('',(45.,8.26636589424463E-015,-45.));
#342=CARTESIAN_POINT($,(45.,5.00000000000001,-45.));
#343=CARTESIAN_POINT($,(45.,8.26636589424463E-015,-45.));
#344=CARTESIAN_POINT('Origin',(5.,45.,0.));
#345=CARTESIAN_POINT('',(0.,45.,45.));
#346=CARTESIAN_POINT($,(0.,45.,0.));
#347=CARTESIAN_POINT('',(5.,45.,45.));
#348=CARTESIAN_POINT($,(0.,45.,45.));
#349=CARTESIAN_POINT($,(5.,45.,0.));
#350=CARTESIAN_POINT('Origin',(5.,5.,0.));
#351=CARTESIAN_POINT('',(5.,5.,45.));
#352=CARTESIAN_POINT($,(5.,45.,45.));
#353=CARTESIAN_POINT($,(5.,5.,0.));
#354=CARTESIAN_POINT('Origin',(45.,5.00000000000001,0.));
#355=CARTESIAN_POINT('',(45.,5.00000000000001,45.));
#356=CARTESIAN_POINT($,(5.,5.,45.));
#357=CARTESIAN_POINT($,(45.,5.00000000000001,0.));
#358=CARTESIAN_POINT('Origin',(45.,8.32667268468867E-015,0.));
#359=CARTESIAN_POINT('',(45.,8.26636589424463E-015,45.));
#360=CARTESIAN_POINT($,(45.,5.00000000000001,45.));
#361=CARTESIAN_POINT($,(45.,8.26636589424463E-015,0.));
#362=CARTESIAN_POINT('Origin',(0.,9.86076131526265E-031,0.));
#363=CARTESIAN_POINT('',(0.,0.,45.));
#364=CARTESIAN_POINT($,(45.,8.26636589424463E-015,45.));
#365=CARTESIAN_POINT($,(0.,0.,0.));
#366=CARTESIAN_POINT('Origin',(0.,45.,0.));
#367=CARTESIAN_POINT($,(0.,0.,45.));
#368=CARTESIAN_POINT('Origin',(13.6111111111111,13.6111111111111,45.));
#369=UNCERTAINTY_MEASURE_WITH_UNIT(LENGTH_MEASURE(0.01),#371,
'DISTANCE_ACCURACY_VALUE',
'Maximum model space distance between geometric entities at asserted c
onnectivities');
#370=(
GEOMETRIC_REPRESENTATION_CONTEXT(3)
GLOBAL_UNCERTAINTY_ASSIGNED_CONTEXT((#369))
GLOBAL_UNIT_ASSIGNED_CONTEXT((#371,#374,#372))
REPRESENTATION_CONTEXT('','3D')
);
#371=(
LENGTH_UNIT()
NAMED_UNIT(*)
SI_UNIT(.MILLI.,.METRE.)
);
#372=(
NAMED_UNIT(*)
SI_UNIT($,.STERADIAN.)
SOLID_ANGLE_UNIT()
);
#373=DIMENSIONAL_EXPONENTS(0.,0.,0.,0.,0.,0.,0.);
#374=(
CONVERSION_BASED_UNIT('degree',#376)
NAMED_UNIT(#373)
PLANE_ANGLE_UNIT()
);
#375=(
NAMED_UNIT(*)
PLANE_ANGLE_UNIT()
SI_UNIT($,.RADIAN.)
);
#376=PLANE_ANGLE_MEASURE_WITH_UNIT(PLANE_ANGLE_MEASURE(0.01745329252),#375);
#377=SHAPE_DEFINITION_REPRESENTATION(#378,#379);
#378=PRODUCT_DEFINITION_SHAPE('',$,#381);
#379=SHAPE_REPRESENTATION('',(#229),#370);
#380=PRODUCT_DEFINITION_CONTEXT('3D Mechanical Parts',#384,'design');
#381=PRODUCT_DEFINITION('81516_KriTec_Aluwinkel_10_45x45x90x5',
'81516_KriTec_Aluwinkel_10_45x45x90x5',#382,#380);
#382=PRODUCT_DEFINITION_FORMATION('',$,#386);
#383=APPLICATION_PROTOCOL_DEFINITION('international standard',
'automotive_design',2009,#384);
#384=APPLICATION_CONTEXT(
'Core Data for Automotive Mechanical Design Process');
#385=PRODUCT_CONTEXT('3D Mechanical Parts',#384,'mechanical');
#386=PRODUCT('81516_KriTec_Aluwinkel_10_45x45x90x5',
'81516_KriTec_Aluwinkel_10_45x45x90x5',$,(#385));
#387=PRESENTATION_STYLE_ASSIGNMENT((#388));
#388=SURFACE_STYLE_USAGE(.BOTH.,#389);
#389=SURFACE_SIDE_STYLE($,(#390));
#390=SURFACE_STYLE_FILL_AREA(#391);
#391=FILL_AREA_STYLE($,(#392));
#392=FILL_AREA_STYLE_COLOUR($,#393);
#393=COLOUR_RGB('',0.831372549019608,0.831372549019608,0.831372549019608);
ENDSEC;
END-ISO-10303-21;
