ISO-10303-21;
HEADER;
/* Generated by software containing ST-Developer
 * from STEP Tools, Inc. (www.steptools.com) 
 */

FILE_DESCRIPTION(
/* description */ ('Aluwinkel-40x40x120'),
/* implementation_level */ '2;1');

FILE_NAME(
/* name */ 
'S:\\Bilder_neu\\11264_KriTec_Winkel_8_40x40x25\\Inventordateien\\1126
2_KriTec_Winkel_8_40x40x40.stp',
/* time_stamp */ '2016-07-07T15:37:47+02:00',
/* author */ ('Steiner'),
/* organization */ (''),
/* preprocessor_version */ 'ST-DEVELOPER v16.1',
/* originating_system */ 'Autodesk Inventor 2016',
/* authorisation */ '');

FILE_SCHEMA (('AUTOMOTIVE_DESIGN { 1 0 10303 214 3 1 1 }'));
ENDSEC;

DATA;
#10=MECHANICAL_DESIGN_GEOMETRIC_PRESENTATION_REPRESENTATION('',(#13),#554);
#11=SHAPE_REPRESENTATION_RELATIONSHIP('SRR','None',#563,#12);
#12=ADVANCED_BREP_SHAPE_REPRESENTATION('',(#14),#553);
#13=STYLED_ITEM('',(#572),#14);
#14=MANIFOLD_SOLID_BREP('Volumenk\X\F6rper1',#326);
#15=FACE_BOUND('',#66,.T.);
#16=FACE_BOUND('',#68,.T.);
#17=FACE_BOUND('',#70,.T.);
#18=FACE_BOUND('',#72,.T.);
#19=FACE_BOUND('',#75,.T.);
#20=FACE_BOUND('',#77,.T.);
#21=FACE_BOUND('',#82,.T.);
#22=FACE_BOUND('',#84,.T.);
#23=ELLIPSE('',#332,7.57614408414158,7.5);
#24=ELLIPSE('',#338,7.57614408414158,7.5);
#25=ELLIPSE('',#343,10.6066017177982,7.5);
#26=ELLIPSE('',#344,10.6066017177982,7.5);
#27=ELLIPSE('',#345,10.6066017177982,7.5);
#28=ELLIPSE('',#350,10.6066017177982,7.5);
#29=ELLIPSE('',#351,10.6066017177982,7.5);
#30=PLANE('',#331);
#31=PLANE('',#333);
#32=PLANE('',#337);
#33=PLANE('',#339);
#34=PLANE('',#352);
#35=PLANE('',#353);
#36=PLANE('',#357);
#37=PLANE('',#358);
#38=PLANE('',#359);
#39=PLANE('',#360);
#40=PLANE('',#361);
#41=PLANE('',#362);
#42=FACE_OUTER_BOUND('',#60,.T.);
#43=FACE_OUTER_BOUND('',#61,.T.);
#44=FACE_OUTER_BOUND('',#62,.T.);
#45=FACE_OUTER_BOUND('',#63,.T.);
#46=FACE_OUTER_BOUND('',#64,.T.);
#47=FACE_OUTER_BOUND('',#65,.T.);
#48=FACE_OUTER_BOUND('',#67,.T.);
#49=FACE_OUTER_BOUND('',#69,.T.);
#50=FACE_OUTER_BOUND('',#71,.T.);
#51=FACE_OUTER_BOUND('',#73,.T.);
#52=FACE_OUTER_BOUND('',#74,.T.);
#53=FACE_OUTER_BOUND('',#76,.T.);
#54=FACE_OUTER_BOUND('',#78,.T.);
#55=FACE_OUTER_BOUND('',#79,.T.);
#56=FACE_OUTER_BOUND('',#80,.T.);
#57=FACE_OUTER_BOUND('',#81,.T.);
#58=FACE_OUTER_BOUND('',#83,.T.);
#59=FACE_OUTER_BOUND('',#85,.T.);
#60=EDGE_LOOP('',(#218,#219,#220,#221));
#61=EDGE_LOOP('',(#222,#223,#224,#225,#226,#227));
#62=EDGE_LOOP('',(#228,#229,#230,#231,#232,#233,#234,#235,#236));
#63=EDGE_LOOP('',(#237,#238,#239,#240));
#64=EDGE_LOOP('',(#241,#242,#243,#244,#245,#246));
#65=EDGE_LOOP('',(#247));
#66=EDGE_LOOP('',(#248));
#67=EDGE_LOOP('',(#249,#250,#251,#252));
#68=EDGE_LOOP('',(#253));
#69=EDGE_LOOP('',(#254));
#70=EDGE_LOOP('',(#255));
#71=EDGE_LOOP('',(#256));
#72=EDGE_LOOP('',(#257,#258,#259,#260));
#73=EDGE_LOOP('',(#261,#262,#263,#264,#265));
#74=EDGE_LOOP('',(#266));
#75=EDGE_LOOP('',(#267));
#76=EDGE_LOOP('',(#268));
#77=EDGE_LOOP('',(#269));
#78=EDGE_LOOP('',(#270,#271,#272,#273));
#79=EDGE_LOOP('',(#274,#275,#276,#277,#278));
#80=EDGE_LOOP('',(#279,#280,#281,#282));
#81=EDGE_LOOP('',(#283,#284,#285,#286));
#82=EDGE_LOOP('',(#287));
#83=EDGE_LOOP('',(#288,#289,#290,#291));
#84=EDGE_LOOP('',(#292));
#85=EDGE_LOOP('',(#293,#294,#295,#296,#297,#298,#299,#300,#301));
#86=LINE('',#466,#111);
#87=LINE('',#469,#112);
#88=LINE('',#472,#113);
#89=LINE('',#474,#114);
#90=LINE('',#478,#115);
#91=LINE('',#479,#116);
#92=LINE('',#482,#117);
#93=LINE('',#484,#118);
#94=LINE('',#486,#119);
#95=LINE('',#488,#120);
#96=LINE('',#492,#121);
#97=LINE('',#493,#122);
#98=LINE('',#498,#123);
#99=LINE('',#499,#124);
#100=LINE('',#502,#125);
#101=LINE('',#504,#126);
#102=LINE('',#507,#127);
#103=LINE('',#528,#128);
#104=LINE('',#537,#129);
#105=LINE('',#538,#130);
#106=LINE('',#542,#131);
#107=LINE('',#543,#132);
#108=LINE('',#546,#133);
#109=LINE('',#547,#134);
#110=LINE('',#549,#135);
#111=VECTOR('',#369,40.);
#112=VECTOR('',#372,40.);
#113=VECTOR('',#375,12.4075448203408);
#114=VECTOR('',#376,15.5);
#115=VECTOR('',#379,15.5);
#116=VECTOR('',#380,12.4075448203408);
#117=VECTOR('',#383,5.26540919660988);
#118=VECTOR('',#384,40.);
#119=VECTOR('',#385,40.);
#120=VECTOR('',#386,5.26540919660987);
#121=VECTOR('',#389,12.4075448203408);
#122=VECTOR('',#390,24.0416305603426);
#123=VECTOR('',#395,40.);
#124=VECTOR('',#396,40.);
#125=VECTOR('',#399,12.4075448203408);
#126=VECTOR('',#400,15.5000000000001);
#127=VECTOR('',#403,15.5000000000001);
#128=VECTOR('',#432,24.0416305603426);
#129=VECTOR('',#443,40.);
#130=VECTOR('',#444,5.26540919660987);
#131=VECTOR('',#449,5.26540919660988);
#132=VECTOR('',#450,40.);
#133=VECTOR('',#453,40.);
#134=VECTOR('',#454,40.);
#135=VECTOR('',#457,40.);
#136=CIRCLE('',#329,2.);
#137=CIRCLE('',#330,2.);
#138=CIRCLE('',#334,2.);
#139=CIRCLE('',#336,2.);
#140=CIRCLE('',#340,7.5);
#141=CIRCLE('',#341,4.25);
#142=CIRCLE('',#347,4.25);
#143=CIRCLE('',#349,7.5);
#144=CIRCLE('',#354,4.25);
#145=CIRCLE('',#356,4.25);
#146=VERTEX_POINT('',#462);
#147=VERTEX_POINT('',#463);
#148=VERTEX_POINT('',#465);
#149=VERTEX_POINT('',#467);
#150=VERTEX_POINT('',#471);
#151=VERTEX_POINT('',#473);
#152=VERTEX_POINT('',#475);
#153=VERTEX_POINT('',#477);
#154=VERTEX_POINT('',#481);
#155=VERTEX_POINT('',#483);
#156=VERTEX_POINT('',#485);
#157=VERTEX_POINT('',#487);
#158=VERTEX_POINT('',#489);
#159=VERTEX_POINT('',#491);
#160=VERTEX_POINT('',#495);
#161=VERTEX_POINT('',#496);
#162=VERTEX_POINT('',#501);
#163=VERTEX_POINT('',#503);
#164=VERTEX_POINT('',#505);
#165=VERTEX_POINT('',#509);
#166=VERTEX_POINT('',#511);
#167=VERTEX_POINT('',#514);
#168=VERTEX_POINT('',#516);
#169=VERTEX_POINT('',#520);
#170=VERTEX_POINT('',#523);
#171=VERTEX_POINT('',#530);
#172=VERTEX_POINT('',#533);
#173=VERTEX_POINT('',#536);
#174=VERTEX_POINT('',#541);
#175=VERTEX_POINT('',#545);
#176=EDGE_CURVE('',#146,#147,#136,.T.);
#177=EDGE_CURVE('',#147,#148,#86,.T.);
#178=EDGE_CURVE('',#148,#149,#137,.T.);
#179=EDGE_CURVE('',#149,#146,#87,.T.);
#180=EDGE_CURVE('',#149,#150,#88,.T.);
#181=EDGE_CURVE('',#150,#151,#89,.T.);
#182=EDGE_CURVE('',#151,#152,#23,.T.);
#183=EDGE_CURVE('',#152,#153,#90,.T.);
#184=EDGE_CURVE('',#153,#146,#91,.T.);
#185=EDGE_CURVE('',#154,#148,#92,.T.);
#186=EDGE_CURVE('',#155,#154,#93,.T.);
#187=EDGE_CURVE('',#156,#155,#94,.T.);
#188=EDGE_CURVE('',#157,#156,#95,.T.);
#189=EDGE_CURVE('',#158,#157,#138,.T.);
#190=EDGE_CURVE('',#159,#158,#96,.T.);
#191=EDGE_CURVE('',#150,#159,#97,.T.);
#192=EDGE_CURVE('',#160,#161,#139,.T.);
#193=EDGE_CURVE('',#161,#158,#98,.T.);
#194=EDGE_CURVE('',#157,#160,#99,.T.);
#195=EDGE_CURVE('',#161,#162,#100,.T.);
#196=EDGE_CURVE('',#163,#162,#101,.T.);
#197=EDGE_CURVE('',#163,#164,#24,.T.);
#198=EDGE_CURVE('',#159,#164,#102,.T.);
#199=EDGE_CURVE('',#165,#165,#140,.T.);
#200=EDGE_CURVE('',#166,#166,#141,.T.);
#201=EDGE_CURVE('',#167,#163,#25,.T.);
#202=EDGE_CURVE('',#168,#167,#26,.T.);
#203=EDGE_CURVE('',#164,#168,#27,.T.);
#204=EDGE_CURVE('',#169,#169,#142,.T.);
#205=EDGE_CURVE('',#170,#170,#143,.T.);
#206=EDGE_CURVE('',#152,#167,#28,.T.);
#207=EDGE_CURVE('',#168,#151,#29,.T.);
#208=EDGE_CURVE('',#162,#153,#103,.T.);
#209=EDGE_CURVE('',#171,#171,#144,.T.);
#210=EDGE_CURVE('',#172,#172,#145,.T.);
#211=EDGE_CURVE('',#156,#173,#104,.T.);
#212=EDGE_CURVE('',#173,#160,#105,.T.);
#213=EDGE_CURVE('',#147,#174,#106,.T.);
#214=EDGE_CURVE('',#154,#174,#107,.T.);
#215=EDGE_CURVE('',#174,#175,#108,.T.);
#216=EDGE_CURVE('',#155,#175,#109,.T.);
#217=EDGE_CURVE('',#175,#173,#110,.T.);
#218=ORIENTED_EDGE('',*,*,#176,.T.);
#219=ORIENTED_EDGE('',*,*,#177,.T.);
#220=ORIENTED_EDGE('',*,*,#178,.T.);
#221=ORIENTED_EDGE('',*,*,#179,.T.);
#222=ORIENTED_EDGE('',*,*,#179,.F.);
#223=ORIENTED_EDGE('',*,*,#180,.T.);
#224=ORIENTED_EDGE('',*,*,#181,.T.);
#225=ORIENTED_EDGE('',*,*,#182,.T.);
#226=ORIENTED_EDGE('',*,*,#183,.T.);
#227=ORIENTED_EDGE('',*,*,#184,.T.);
#228=ORIENTED_EDGE('',*,*,#178,.F.);
#229=ORIENTED_EDGE('',*,*,#185,.F.);
#230=ORIENTED_EDGE('',*,*,#186,.F.);
#231=ORIENTED_EDGE('',*,*,#187,.F.);
#232=ORIENTED_EDGE('',*,*,#188,.F.);
#233=ORIENTED_EDGE('',*,*,#189,.F.);
#234=ORIENTED_EDGE('',*,*,#190,.F.);
#235=ORIENTED_EDGE('',*,*,#191,.F.);
#236=ORIENTED_EDGE('',*,*,#180,.F.);
#237=ORIENTED_EDGE('',*,*,#192,.T.);
#238=ORIENTED_EDGE('',*,*,#193,.T.);
#239=ORIENTED_EDGE('',*,*,#189,.T.);
#240=ORIENTED_EDGE('',*,*,#194,.T.);
#241=ORIENTED_EDGE('',*,*,#193,.F.);
#242=ORIENTED_EDGE('',*,*,#195,.T.);
#243=ORIENTED_EDGE('',*,*,#196,.F.);
#244=ORIENTED_EDGE('',*,*,#197,.T.);
#245=ORIENTED_EDGE('',*,*,#198,.F.);
#246=ORIENTED_EDGE('',*,*,#190,.T.);
#247=ORIENTED_EDGE('',*,*,#199,.T.);
#248=ORIENTED_EDGE('',*,*,#200,.F.);
#249=ORIENTED_EDGE('',*,*,#197,.F.);
#250=ORIENTED_EDGE('',*,*,#201,.F.);
#251=ORIENTED_EDGE('',*,*,#202,.F.);
#252=ORIENTED_EDGE('',*,*,#203,.F.);
#253=ORIENTED_EDGE('',*,*,#199,.F.);
#254=ORIENTED_EDGE('',*,*,#204,.F.);
#255=ORIENTED_EDGE('',*,*,#200,.T.);
#256=ORIENTED_EDGE('',*,*,#205,.F.);
#257=ORIENTED_EDGE('',*,*,#202,.T.);
#258=ORIENTED_EDGE('',*,*,#206,.F.);
#259=ORIENTED_EDGE('',*,*,#182,.F.);
#260=ORIENTED_EDGE('',*,*,#207,.F.);
#261=ORIENTED_EDGE('',*,*,#201,.T.);
#262=ORIENTED_EDGE('',*,*,#196,.T.);
#263=ORIENTED_EDGE('',*,*,#208,.T.);
#264=ORIENTED_EDGE('',*,*,#183,.F.);
#265=ORIENTED_EDGE('',*,*,#206,.T.);
#266=ORIENTED_EDGE('',*,*,#205,.T.);
#267=ORIENTED_EDGE('',*,*,#209,.F.);
#268=ORIENTED_EDGE('',*,*,#210,.F.);
#269=ORIENTED_EDGE('',*,*,#209,.T.);
#270=ORIENTED_EDGE('',*,*,#194,.F.);
#271=ORIENTED_EDGE('',*,*,#188,.T.);
#272=ORIENTED_EDGE('',*,*,#211,.T.);
#273=ORIENTED_EDGE('',*,*,#212,.T.);
#274=ORIENTED_EDGE('',*,*,#203,.T.);
#275=ORIENTED_EDGE('',*,*,#207,.T.);
#276=ORIENTED_EDGE('',*,*,#181,.F.);
#277=ORIENTED_EDGE('',*,*,#191,.T.);
#278=ORIENTED_EDGE('',*,*,#198,.T.);
#279=ORIENTED_EDGE('',*,*,#177,.F.);
#280=ORIENTED_EDGE('',*,*,#213,.T.);
#281=ORIENTED_EDGE('',*,*,#214,.F.);
#282=ORIENTED_EDGE('',*,*,#185,.T.);
#283=ORIENTED_EDGE('',*,*,#215,.T.);
#284=ORIENTED_EDGE('',*,*,#216,.F.);
#285=ORIENTED_EDGE('',*,*,#186,.T.);
#286=ORIENTED_EDGE('',*,*,#214,.T.);
#287=ORIENTED_EDGE('',*,*,#210,.T.);
#288=ORIENTED_EDGE('',*,*,#217,.T.);
#289=ORIENTED_EDGE('',*,*,#211,.F.);
#290=ORIENTED_EDGE('',*,*,#187,.T.);
#291=ORIENTED_EDGE('',*,*,#216,.T.);
#292=ORIENTED_EDGE('',*,*,#204,.T.);
#293=ORIENTED_EDGE('',*,*,#176,.F.);
#294=ORIENTED_EDGE('',*,*,#184,.F.);
#295=ORIENTED_EDGE('',*,*,#208,.F.);
#296=ORIENTED_EDGE('',*,*,#195,.F.);
#297=ORIENTED_EDGE('',*,*,#192,.F.);
#298=ORIENTED_EDGE('',*,*,#212,.F.);
#299=ORIENTED_EDGE('',*,*,#217,.F.);
#300=ORIENTED_EDGE('',*,*,#215,.F.);
#301=ORIENTED_EDGE('',*,*,#213,.F.);
#302=CYLINDRICAL_SURFACE('',#328,2.);
#303=CYLINDRICAL_SURFACE('',#335,2.);
#304=CYLINDRICAL_SURFACE('',#342,7.5);
#305=CYLINDRICAL_SURFACE('',#346,4.25);
#306=CYLINDRICAL_SURFACE('',#348,7.5);
#307=CYLINDRICAL_SURFACE('',#355,4.25);
#308=ADVANCED_FACE('',(#42),#302,.T.);
#309=ADVANCED_FACE('',(#43),#30,.T.);
#310=ADVANCED_FACE('',(#44),#31,.F.);
#311=ADVANCED_FACE('',(#45),#303,.T.);
#312=ADVANCED_FACE('',(#46),#32,.T.);
#313=ADVANCED_FACE('',(#47,#15),#33,.T.);
#314=ADVANCED_FACE('',(#48,#16),#304,.F.);
#315=ADVANCED_FACE('',(#49,#17),#305,.F.);
#316=ADVANCED_FACE('',(#50,#18),#306,.F.);
#317=ADVANCED_FACE('',(#51),#34,.T.);
#318=ADVANCED_FACE('',(#52,#19),#35,.T.);
#319=ADVANCED_FACE('',(#53,#20),#307,.F.);
#320=ADVANCED_FACE('',(#54),#36,.T.);
#321=ADVANCED_FACE('',(#55),#37,.T.);
#322=ADVANCED_FACE('',(#56),#38,.T.);
#323=ADVANCED_FACE('',(#57,#21),#39,.T.);
#324=ADVANCED_FACE('',(#58,#22),#40,.T.);
#325=ADVANCED_FACE('',(#59),#41,.T.);
#326=CLOSED_SHELL('',(#308,#309,#310,#311,#312,#313,#314,#315,#316,#317,
#318,#319,#320,#321,#322,#323,#324,#325));
#327=AXIS2_PLACEMENT_3D('placement',#460,#363,#364);
#328=AXIS2_PLACEMENT_3D('',#461,#365,#366);
#329=AXIS2_PLACEMENT_3D('',#464,#367,#368);
#330=AXIS2_PLACEMENT_3D('',#468,#370,#371);
#331=AXIS2_PLACEMENT_3D('',#470,#373,#374);
#332=AXIS2_PLACEMENT_3D('',#476,#377,#378);
#333=AXIS2_PLACEMENT_3D('',#480,#381,#382);
#334=AXIS2_PLACEMENT_3D('',#490,#387,#388);
#335=AXIS2_PLACEMENT_3D('',#494,#391,#392);
#336=AXIS2_PLACEMENT_3D('',#497,#393,#394);
#337=AXIS2_PLACEMENT_3D('',#500,#397,#398);
#338=AXIS2_PLACEMENT_3D('',#506,#401,#402);
#339=AXIS2_PLACEMENT_3D('',#508,#404,#405);
#340=AXIS2_PLACEMENT_3D('',#510,#406,#407);
#341=AXIS2_PLACEMENT_3D('',#512,#408,#409);
#342=AXIS2_PLACEMENT_3D('',#513,#410,#411);
#343=AXIS2_PLACEMENT_3D('',#515,#412,#413);
#344=AXIS2_PLACEMENT_3D('',#517,#414,#415);
#345=AXIS2_PLACEMENT_3D('',#518,#416,#417);
#346=AXIS2_PLACEMENT_3D('',#519,#418,#419);
#347=AXIS2_PLACEMENT_3D('',#521,#420,#421);
#348=AXIS2_PLACEMENT_3D('',#522,#422,#423);
#349=AXIS2_PLACEMENT_3D('',#524,#424,#425);
#350=AXIS2_PLACEMENT_3D('',#525,#426,#427);
#351=AXIS2_PLACEMENT_3D('',#526,#428,#429);
#352=AXIS2_PLACEMENT_3D('',#527,#430,#431);
#353=AXIS2_PLACEMENT_3D('',#529,#433,#434);
#354=AXIS2_PLACEMENT_3D('',#531,#435,#436);
#355=AXIS2_PLACEMENT_3D('',#532,#437,#438);
#356=AXIS2_PLACEMENT_3D('',#534,#439,#440);
#357=AXIS2_PLACEMENT_3D('',#535,#441,#442);
#358=AXIS2_PLACEMENT_3D('',#539,#445,#446);
#359=AXIS2_PLACEMENT_3D('',#540,#447,#448);
#360=AXIS2_PLACEMENT_3D('',#544,#451,#452);
#361=AXIS2_PLACEMENT_3D('',#548,#455,#456);
#362=AXIS2_PLACEMENT_3D('',#550,#458,#459);
#363=DIRECTION('axis',(0.,0.,1.));
#364=DIRECTION('refdir',(1.,0.,0.));
#365=DIRECTION('center_axis',(0.,0.,1.));
#366=DIRECTION('ref_axis',(0.755453954995706,0.655201741360129,0.));
#367=DIRECTION('center_axis',(0.,0.,-1.));
#368=DIRECTION('ref_axis',(0.755453954995706,0.655201741360129,0.));
#369=DIRECTION('',(0.,0.,-1.));
#370=DIRECTION('center_axis',(0.,0.,1.));
#371=DIRECTION('ref_axis',(0.755453954995706,0.655201741360129,0.));
#372=DIRECTION('',(0.,0.,1.));
#373=DIRECTION('center_axis',(0.141421356237309,0.989949493661167,0.));
#374=DIRECTION('ref_axis',(0.,0.,1.));
#375=DIRECTION('',(-0.989949493661167,0.141421356237309,0.));
#376=DIRECTION('',(0.,0.,1.));
#377=DIRECTION('center_axis',(-0.141421356237309,-0.989949493661167,0.));
#378=DIRECTION('ref_axis',(0.989949493661167,-0.141421356237309,0.));
#379=DIRECTION('',(0.,0.,1.));
#380=DIRECTION('',(0.989949493661167,-0.141421356237309,0.));
#381=DIRECTION('center_axis',(0.,0.,1.));
#382=DIRECTION('ref_axis',(1.,0.,0.));
#383=DIRECTION('',(-1.58603289232165E-15,1.,0.));
#384=DIRECTION('',(1.,1.11022302462516E-16,0.));
#385=DIRECTION('',(2.22044604925031E-16,-1.,0.));
#386=DIRECTION('',(-1.,-3.1720657846433E-16,0.));
#387=DIRECTION('center_axis',(0.,0.,1.));
#388=DIRECTION('ref_axis',(0.655201741360129,0.755453954995706,0.));
#389=DIRECTION('',(-0.141421356237309,0.989949493661167,0.));
#390=DIRECTION('',(-0.707106781186548,0.707106781186547,0.));
#391=DIRECTION('center_axis',(0.,0.,1.));
#392=DIRECTION('ref_axis',(0.655201741360129,0.755453954995706,0.));
#393=DIRECTION('center_axis',(0.,0.,-1.));
#394=DIRECTION('ref_axis',(0.655201741360129,0.755453954995706,0.));
#395=DIRECTION('',(0.,0.,-1.));
#396=DIRECTION('',(0.,0.,1.));
#397=DIRECTION('center_axis',(0.989949493661167,0.141421356237309,0.));
#398=DIRECTION('ref_axis',(0.,0.,-1.));
#399=DIRECTION('',(0.141421356237309,-0.989949493661167,0.));
#400=DIRECTION('',(0.,0.,1.));
#401=DIRECTION('center_axis',(-0.989949493661167,-0.141421356237309,0.));
#402=DIRECTION('ref_axis',(-0.141421356237309,0.989949493661167,0.));
#403=DIRECTION('',(0.,0.,1.));
#404=DIRECTION('center_axis',(1.,1.58603289232165E-15,0.));
#405=DIRECTION('ref_axis',(0.,0.,-1.));
#406=DIRECTION('center_axis',(1.,1.58603289232165E-15,0.));
#407=DIRECTION('ref_axis',(0.,0.,-1.));
#408=DIRECTION('center_axis',(1.,1.58603289232165E-15,0.));
#409=DIRECTION('ref_axis',(0.,0.,-1.));
#410=DIRECTION('center_axis',(1.,1.58603289232165E-15,0.));
#411=DIRECTION('ref_axis',(0.,0.,-1.));
#412=DIRECTION('center_axis',(-0.707106781186547,-0.707106781186548,0.));
#413=DIRECTION('ref_axis',(-0.707106781186548,0.707106781186547,0.));
#414=DIRECTION('center_axis',(-0.707106781186548,0.707106781186547,0.));
#415=DIRECTION('ref_axis',(0.707106781186547,0.707106781186548,0.));
#416=DIRECTION('center_axis',(-0.707106781186547,-0.707106781186548,0.));
#417=DIRECTION('ref_axis',(-0.707106781186548,0.707106781186547,0.));
#418=DIRECTION('center_axis',(1.,1.58603289232165E-15,0.));
#419=DIRECTION('ref_axis',(0.,0.,-1.));
#420=DIRECTION('center_axis',(1.,2.22044604925031E-16,0.));
#421=DIRECTION('ref_axis',(0.,0.,-1.));
#422=DIRECTION('center_axis',(-3.1720657846433E-16,1.,0.));
#423=DIRECTION('ref_axis',(1.,3.1720657846433E-16,0.));
#424=DIRECTION('center_axis',(-3.1720657846433E-16,1.,0.));
#425=DIRECTION('ref_axis',(1.,3.1720657846433E-16,0.));
#426=DIRECTION('center_axis',(-0.707106781186547,-0.707106781186548,0.));
#427=DIRECTION('ref_axis',(0.707106781186548,-0.707106781186547,0.));
#428=DIRECTION('center_axis',(-0.707106781186547,-0.707106781186548,0.));
#429=DIRECTION('ref_axis',(0.707106781186548,-0.707106781186547,0.));
#430=DIRECTION('center_axis',(0.707106781186547,0.707106781186548,0.));
#431=DIRECTION('ref_axis',(0.,0.,-1.));
#432=DIRECTION('',(0.707106781186548,-0.707106781186547,0.));
#433=DIRECTION('center_axis',(-3.1720657846433E-16,1.,0.));
#434=DIRECTION('ref_axis',(1.,3.5527136788005E-16,0.));
#435=DIRECTION('center_axis',(-3.1720657846433E-16,1.,0.));
#436=DIRECTION('ref_axis',(1.,3.1720657846433E-16,0.));
#437=DIRECTION('center_axis',(-3.1720657846433E-16,1.,0.));
#438=DIRECTION('ref_axis',(1.,3.1720657846433E-16,0.));
#439=DIRECTION('center_axis',(-1.11022302462516E-16,1.,0.));
#440=DIRECTION('ref_axis',(1.,3.1720657846433E-16,0.));
#441=DIRECTION('center_axis',(-3.1720657846433E-16,1.,0.));
#442=DIRECTION('ref_axis',(0.,0.,1.));
#443=DIRECTION('',(0.,0.,1.));
#444=DIRECTION('',(1.,3.1720657846433E-16,0.));
#445=DIRECTION('center_axis',(0.707106781186547,0.707106781186548,0.));
#446=DIRECTION('ref_axis',(0.,0.,-1.));
#447=DIRECTION('center_axis',(1.,1.58603289232165E-15,0.));
#448=DIRECTION('ref_axis',(0.,0.,-1.));
#449=DIRECTION('',(1.58603289232165E-15,-1.,0.));
#450=DIRECTION('',(0.,0.,1.));
#451=DIRECTION('center_axis',(1.11022302462516E-16,-1.,0.));
#452=DIRECTION('ref_axis',(0.,0.,-1.));
#453=DIRECTION('',(-1.,-1.11022302462516E-16,0.));
#454=DIRECTION('',(0.,0.,1.));
#455=DIRECTION('center_axis',(-1.,-2.22044604925031E-16,0.));
#456=DIRECTION('ref_axis',(0.,0.,1.));
#457=DIRECTION('',(-2.22044604925031E-16,1.,0.));
#458=DIRECTION('center_axis',(0.,0.,1.));
#459=DIRECTION('ref_axis',(1.,0.,0.));
#460=CARTESIAN_POINT('',(0.,0.,0.));
#461=CARTESIAN_POINT('Origin',(8.39018121546552,-22.0084927711837,0.));
#462=CARTESIAN_POINT('',(8.67302392794014,-20.0285937838614,40.));
#463=CARTESIAN_POINT('',(10.3901812154655,-22.0084927711837,40.));
#464=CARTESIAN_POINT('Origin',(8.39018121546552,-22.0084927711837,40.));
#465=CARTESIAN_POINT('',(10.3901812154655,-22.0084927711837,0.));
#466=CARTESIAN_POINT('',(10.3901812154655,-22.0084927711837,0.));
#467=CARTESIAN_POINT('',(8.67302392794014,-20.0285937838614,0.));
#468=CARTESIAN_POINT('Origin',(8.39018121546552,-22.0084927711837,0.));
#469=CARTESIAN_POINT('',(8.67302392794014,-20.0285937838614,0.));
#470=CARTESIAN_POINT('Origin',(-3.60981878453448,-18.2739019677936,0.));
#471=CARTESIAN_POINT('',(-3.60981878453448,-18.2739019677936,0.));
#472=CARTESIAN_POINT('',(10.3901812154655,-20.2739019677936,0.));
#473=CARTESIAN_POINT('',(-3.60981878453448,-18.2739019677936,15.5));
#474=CARTESIAN_POINT('',(-3.60981878453448,-18.2739019677936,0.));
#475=CARTESIAN_POINT('',(-3.60981878453448,-18.2739019677936,24.5));
#476=CARTESIAN_POINT('Origin',(-9.60981878453447,-17.4167591106507,20.));
#477=CARTESIAN_POINT('',(-3.60981878453448,-18.2739019677936,40.));
#478=CARTESIAN_POINT('',(-3.60981878453448,-18.2739019677936,0.));
#479=CARTESIAN_POINT('',(10.3901812154655,-20.2739019677936,40.));
#480=CARTESIAN_POINT('Origin',(-15.2237390175777,-12.8878222008368,0.));
#481=CARTESIAN_POINT('',(10.3901812154655,-27.2739019677936,0.));
#482=CARTESIAN_POINT('',(10.3901812154655,-27.2739019677936,0.));
#483=CARTESIAN_POINT('',(-29.6098187845345,-27.2739019677936,0.));
#484=CARTESIAN_POINT('',(-29.6098187845345,-27.2739019677936,0.));
#485=CARTESIAN_POINT('',(-29.6098187845345,12.7260980322064,0.));
#486=CARTESIAN_POINT('',(-29.6098187845345,12.7260980322064,0.));
#487=CARTESIAN_POINT('',(-24.3444095879246,12.7260980322064,0.));
#488=CARTESIAN_POINT('',(-22.6098187845345,12.7260980322064,0.));
#489=CARTESIAN_POINT('',(-22.3645106006023,11.008940744681,0.));
#490=CARTESIAN_POINT('Origin',(-24.3444095879246,10.7260980322064,0.));
#491=CARTESIAN_POINT('',(-20.6098187845345,-1.27390196779358,0.));
#492=CARTESIAN_POINT('',(-20.6098187845345,-1.27390196779358,0.));
#493=CARTESIAN_POINT('',(-3.60981878453448,-18.2739019677936,0.));
#494=CARTESIAN_POINT('Origin',(-24.3444095879246,10.7260980322064,0.));
#495=CARTESIAN_POINT('',(-24.3444095879246,12.7260980322064,40.));
#496=CARTESIAN_POINT('',(-22.3645106006023,11.008940744681,40.));
#497=CARTESIAN_POINT('Origin',(-24.3444095879246,10.7260980322064,40.));
#498=CARTESIAN_POINT('',(-22.3645106006023,11.008940744681,0.));
#499=CARTESIAN_POINT('',(-24.3444095879246,12.7260980322064,0.));
#500=CARTESIAN_POINT('Origin',(-22.6098187845345,12.7260980322064,0.));
#501=CARTESIAN_POINT('',(-20.6098187845345,-1.27390196779358,40.));
#502=CARTESIAN_POINT('',(-20.6098187845345,-1.27390196779358,40.));
#503=CARTESIAN_POINT('',(-20.6098187845345,-1.27390196779358,24.4999999999999));
#504=CARTESIAN_POINT('',(-20.6098187845345,-1.27390196779358,0.));
#505=CARTESIAN_POINT('',(-20.6098187845345,-1.27390196779358,15.5000000000001));
#506=CARTESIAN_POINT('Origin',(-19.7526759273916,-7.27390196779362,20.));
#507=CARTESIAN_POINT('',(-20.6098187845345,-1.27390196779358,0.));
#508=CARTESIAN_POINT('Origin',(-24.6098187845345,-7.27390196779363,20.));
#509=CARTESIAN_POINT('',(-24.6098187845345,-7.27390196779363,12.5));
#510=CARTESIAN_POINT('Origin',(-24.6098187845345,-7.27390196779363,20.));
#511=CARTESIAN_POINT('',(-24.6098187845345,-7.27390196779363,24.25));
#512=CARTESIAN_POINT('Origin',(-24.6098187845345,-7.27390196779363,20.));
#513=CARTESIAN_POINT('Origin',(-7.1098187845345,-7.2739019677936,20.));
#514=CARTESIAN_POINT('',(-12.1098187845345,-9.7739019677936,27.0710678118655));
#515=CARTESIAN_POINT('Origin',(-14.6098187845344,-7.27390196779361,20.));
#516=CARTESIAN_POINT('',(-12.1098187845345,-9.7739019677936,12.9289321881345));
#517=CARTESIAN_POINT('Origin',(-9.60981878453447,-7.27390196779361,20.));
#518=CARTESIAN_POINT('Origin',(-14.6098187845344,-7.27390196779361,20.));
#519=CARTESIAN_POINT('Origin',(-58.8918510872896,-7.27390196779368,20.));
#520=CARTESIAN_POINT('',(-29.6098187845345,-7.27390196779364,24.25));
#521=CARTESIAN_POINT('Origin',(-29.6098187845345,-7.27390196779364,20.));
#522=CARTESIAN_POINT('Origin',(-9.60981878453447,-4.77390196779357,20.));
#523=CARTESIAN_POINT('',(-2.10981878453447,-22.2739019677936,20.));
#524=CARTESIAN_POINT('Origin',(-9.60981878453446,-22.2739019677936,20.));
#525=CARTESIAN_POINT('Origin',(-9.60981878453447,-12.2739019677936,20.));
#526=CARTESIAN_POINT('Origin',(-9.60981878453447,-12.2739019677936,20.));
#527=CARTESIAN_POINT('Origin',(-20.6098187845345,-1.27390196779358,0.));
#528=CARTESIAN_POINT('',(-3.60981878453448,-18.2739019677936,40.));
#529=CARTESIAN_POINT('Origin',(-9.60981878453446,-22.2739019677936,20.));
#530=CARTESIAN_POINT('',(-13.8598187845345,-22.2739019677936,20.));
#531=CARTESIAN_POINT('Origin',(-9.60981878453446,-22.2739019677936,20.));
#532=CARTESIAN_POINT('Origin',(-9.60981878453445,-56.5559342705487,20.));
#533=CARTESIAN_POINT('',(-13.8598187845345,-27.2739019677936,20.));
#534=CARTESIAN_POINT('Origin',(-9.60981878453446,-27.2739019677936,20.));
#535=CARTESIAN_POINT('Origin',(-29.6098187845345,12.7260980322064,0.));
#536=CARTESIAN_POINT('',(-29.6098187845345,12.7260980322064,40.));
#537=CARTESIAN_POINT('',(-29.6098187845345,12.7260980322064,0.));
#538=CARTESIAN_POINT('',(-22.6098187845345,12.7260980322064,40.));
#539=CARTESIAN_POINT('Origin',(-20.6098187845345,-1.27390196779358,0.));
#540=CARTESIAN_POINT('Origin',(10.3901812154655,-20.2739019677936,0.));
#541=CARTESIAN_POINT('',(10.3901812154655,-27.2739019677936,40.));
#542=CARTESIAN_POINT('',(10.3901812154655,-27.2739019677936,40.));
#543=CARTESIAN_POINT('',(10.3901812154655,-27.2739019677936,0.));
#544=CARTESIAN_POINT('Origin',(10.3901812154655,-27.2739019677936,0.));
#545=CARTESIAN_POINT('',(-29.6098187845345,-27.2739019677936,40.));
#546=CARTESIAN_POINT('',(-29.6098187845345,-27.2739019677936,40.));
#547=CARTESIAN_POINT('',(-29.6098187845345,-27.2739019677936,0.));
#548=CARTESIAN_POINT('Origin',(-29.6098187845345,-27.2739019677936,0.));
#549=CARTESIAN_POINT('',(-29.6098187845345,12.7260980322064,40.));
#550=CARTESIAN_POINT('Origin',(-15.2237390175777,-12.8878222008368,40.));
#551=UNCERTAINTY_MEASURE_WITH_UNIT(LENGTH_MEASURE(0.01),#555,
'DISTANCE_ACCURACY_VALUE',
'Maximum model space distance between geometric entities at asserted c
onnectivities');
#552=UNCERTAINTY_MEASURE_WITH_UNIT(LENGTH_MEASURE(1.E-6),#555,
'DISTANCE_ACCURACY_VALUE',
'Maximum model space distance between geometric entities at asserted c
onnectivities');
#553=(
GEOMETRIC_REPRESENTATION_CONTEXT(3)
GLOBAL_UNCERTAINTY_ASSIGNED_CONTEXT((#551))
GLOBAL_UNIT_ASSIGNED_CONTEXT((#555,#558,#556))
REPRESENTATION_CONTEXT('','3D')
);
#554=(
GEOMETRIC_REPRESENTATION_CONTEXT(3)
GLOBAL_UNCERTAINTY_ASSIGNED_CONTEXT((#552))
GLOBAL_UNIT_ASSIGNED_CONTEXT((#555,#558,#556))
REPRESENTATION_CONTEXT('','3D')
);
#555=(
LENGTH_UNIT()
NAMED_UNIT(*)
SI_UNIT(.MILLI.,.METRE.)
);
#556=(
NAMED_UNIT(*)
SI_UNIT($,.STERADIAN.)
SOLID_ANGLE_UNIT()
);
#557=DIMENSIONAL_EXPONENTS(0.,0.,0.,0.,0.,0.,0.);
#558=(
CONVERSION_BASED_UNIT('degree',#560)
NAMED_UNIT(#557)
PLANE_ANGLE_UNIT()
);
#559=(
NAMED_UNIT(*)
PLANE_ANGLE_UNIT()
SI_UNIT($,.RADIAN.)
);
#560=PLANE_ANGLE_MEASURE_WITH_UNIT(PLANE_ANGLE_MEASURE(0.01745329252),#559);
#561=SHAPE_DEFINITION_REPRESENTATION(#562,#563);
#562=PRODUCT_DEFINITION_SHAPE('',$,#565);
#563=SHAPE_REPRESENTATION('',(#327),#553);
#564=PRODUCT_DEFINITION_CONTEXT('part definition',#569,'design');
#565=PRODUCT_DEFINITION('11262_KriTec_Winkel_8_40x40x40',
'11262_KriTec_Winkel_8_40x40x40',#566,#564);
#566=PRODUCT_DEFINITION_FORMATION('',$,#571);
#567=PRODUCT_RELATED_PRODUCT_CATEGORY('11262_KriTec_Winkel_8_40x40x40',
'11262_KriTec_Winkel_8_40x40x40',(#571));
#568=APPLICATION_PROTOCOL_DEFINITION('international standard',
'automotive_design',2009,#569);
#569=APPLICATION_CONTEXT(
'Core Data for Automotive Mechanical Design Process');
#570=PRODUCT_CONTEXT('part definition',#569,'mechanical');
#571=PRODUCT('11262_KriTec_Winkel_8_40x40x40',
'11262_KriTec_Winkel_8_40x40x40',$,(#570));
#572=PRESENTATION_STYLE_ASSIGNMENT((#573));
#573=SURFACE_STYLE_USAGE(.BOTH.,#574);
#574=SURFACE_SIDE_STYLE('',(#575));
#575=SURFACE_STYLE_FILL_AREA(#576);
#576=FILL_AREA_STYLE('',(#577));
#577=FILL_AREA_STYLE_COLOUR('',#578);
#578=COLOUR_RGB('',0.956862745098039,0.956862745098039,0.956862745098039);
ENDSEC;
END-ISO-10303-21;
