ISO-10303-21;
HEADER;
/* Generated by software containing ST-Developer
 * from STEP Tools, Inc. (www.steptools.com) 
 */

FILE_DESCRIPTION(
/* description */ (
'KriTec Vario-Lasche 10 Raster 45 100x45x4 St verzinkt'),
/* implementation_level */ '2;1');

FILE_NAME(
/* name */ 
'S:\\Bilder_neu\\81034_KriTec_Vario-Lasche_10_Raster_45_100x45x4_St_ve
rzinkt\\Inventordateien\\81034_KriTec_Vario-Lasche_10_Raster_45_100x45
x4_St_verzinkt.stp',
/* time_stamp */ '2019-11-25T11:41:33+01:00',
/* author */ ('jendrek'),
/* organization */ (''),
/* preprocessor_version */ 'ST-DEVELOPER v17',
/* originating_system */ 'Autodesk Inventor 2018',
/* authorisation */ '');

FILE_SCHEMA (('AUTOMOTIVE_DESIGN { 1 0 10303 214 3 1 1 }'));
ENDSEC;

DATA;
#10=MECHANICAL_DESIGN_GEOMETRIC_PRESENTATION_REPRESENTATION('',(#13),#567);
#11=SHAPE_REPRESENTATION_RELATIONSHIP('SRR','None',#574,#12);
#12=ADVANCED_BREP_SHAPE_REPRESENTATION('',(#14),#566);
#13=STYLED_ITEM('',(#583),#14);
#14=MANIFOLD_SOLID_BREP('Volumenk\X\F6rper1',#323);
#15=FACE_BOUND('',#54,.T.);
#16=FACE_BOUND('',#55,.T.);
#17=FACE_BOUND('',#56,.T.);
#18=FACE_BOUND('',#64,.T.);
#19=FACE_BOUND('',#65,.T.);
#20=FACE_BOUND('',#66,.T.);
#21=PLANE('',#346);
#22=PLANE('',#350);
#23=PLANE('',#362);
#24=PLANE('',#363);
#25=PLANE('',#369);
#26=PLANE('',#372);
#27=PLANE('',#375);
#28=PLANE('',#376);
#29=FACE_OUTER_BOUND('',#45,.T.);
#30=FACE_OUTER_BOUND('',#46,.T.);
#31=FACE_OUTER_BOUND('',#47,.T.);
#32=FACE_OUTER_BOUND('',#48,.T.);
#33=FACE_OUTER_BOUND('',#49,.T.);
#34=FACE_OUTER_BOUND('',#50,.T.);
#35=FACE_OUTER_BOUND('',#51,.T.);
#36=FACE_OUTER_BOUND('',#52,.T.);
#37=FACE_OUTER_BOUND('',#53,.T.);
#38=FACE_OUTER_BOUND('',#57,.T.);
#39=FACE_OUTER_BOUND('',#58,.T.);
#40=FACE_OUTER_BOUND('',#59,.T.);
#41=FACE_OUTER_BOUND('',#60,.T.);
#42=FACE_OUTER_BOUND('',#61,.T.);
#43=FACE_OUTER_BOUND('',#62,.T.);
#44=FACE_OUTER_BOUND('',#63,.T.);
#45=EDGE_LOOP('',(#211,#212,#213,#214));
#46=EDGE_LOOP('',(#215,#216,#217,#218));
#47=EDGE_LOOP('',(#219,#220,#221,#222));
#48=EDGE_LOOP('',(#223,#224,#225,#226));
#49=EDGE_LOOP('',(#227,#228,#229,#230,#231));
#50=EDGE_LOOP('',(#232,#233,#234,#235,#236));
#51=EDGE_LOOP('',(#237,#238,#239,#240));
#52=EDGE_LOOP('',(#241,#242,#243,#244));
#53=EDGE_LOOP('',(#245,#246,#247,#248,#249,#250,#251,#252));
#54=EDGE_LOOP('',(#253,#254,#255,#256));
#55=EDGE_LOOP('',(#257));
#56=EDGE_LOOP('',(#258));
#57=EDGE_LOOP('',(#259,#260,#261,#262));
#58=EDGE_LOOP('',(#263,#264,#265,#266));
#59=EDGE_LOOP('',(#267,#268,#269,#270));
#60=EDGE_LOOP('',(#271,#272,#273,#274));
#61=EDGE_LOOP('',(#275,#276,#277,#278));
#62=EDGE_LOOP('',(#279,#280,#281,#282));
#63=EDGE_LOOP('',(#283,#284,#285,#286,#287,#288,#289,#290));
#64=EDGE_LOOP('',(#291,#292,#293,#294));
#65=EDGE_LOOP('',(#295,#296));
#66=EDGE_LOOP('',(#297,#298));
#67=LINE('',#479,#93);
#68=LINE('',#482,#94);
#69=LINE('',#485,#95);
#70=LINE('',#487,#96);
#71=LINE('',#488,#97);
#72=LINE('',#494,#98);
#73=LINE('',#496,#99);
#74=LINE('',#497,#100);
#75=LINE('',#504,#101);
#76=LINE('',#512,#102);
#77=LINE('',#519,#103);
#78=LINE('',#522,#104);
#79=LINE('',#525,#105);
#80=LINE('',#527,#106);
#81=LINE('',#528,#107);
#82=LINE('',#531,#108);
#83=LINE('',#535,#109);
#84=LINE('',#539,#110);
#85=LINE('',#544,#111);
#86=LINE('',#547,#112);
#87=LINE('',#548,#113);
#88=LINE('',#552,#114);
#89=LINE('',#555,#115);
#90=LINE('',#556,#116);
#91=LINE('',#560,#117);
#92=LINE('',#562,#118);
#93=VECTOR('',#383,10.);
#94=VECTOR('',#386,10.);
#95=VECTOR('',#389,10.);
#96=VECTOR('',#390,10.);
#97=VECTOR('',#391,10.);
#98=VECTOR('',#398,10.);
#99=VECTOR('',#401,10.);
#100=VECTOR('',#402,10.);
#101=VECTOR('',#409,4.2);
#102=VECTOR('',#418,4.2);
#103=VECTOR('',#425,10.);
#104=VECTOR('',#428,10.);
#105=VECTOR('',#431,10.);
#106=VECTOR('',#432,10.);
#107=VECTOR('',#433,10.);
#108=VECTOR('',#436,10.);
#109=VECTOR('',#439,10.);
#110=VECTOR('',#442,10.);
#111=VECTOR('',#449,10.);
#112=VECTOR('',#452,10.);
#113=VECTOR('',#453,10.);
#114=VECTOR('',#458,10.);
#115=VECTOR('',#461,10.);
#116=VECTOR('',#462,10.);
#117=VECTOR('',#467,10.);
#118=VECTOR('',#470,10.);
#119=CIRCLE('',#344,4.2);
#120=CIRCLE('',#345,4.2);
#121=CIRCLE('',#348,4.2);
#122=CIRCLE('',#349,4.2);
#123=CIRCLE('',#352,4.2);
#124=CIRCLE('',#353,4.2);
#125=CIRCLE('',#354,4.2);
#126=CIRCLE('',#356,4.2);
#127=CIRCLE('',#357,4.2);
#128=CIRCLE('',#358,4.2);
#129=CIRCLE('',#360,5.);
#130=CIRCLE('',#361,5.);
#131=CIRCLE('',#364,5.);
#132=CIRCLE('',#365,5.);
#133=CIRCLE('',#366,5.);
#134=CIRCLE('',#368,5.);
#135=CIRCLE('',#371,5.);
#136=CIRCLE('',#374,5.);
#137=VERTEX_POINT('',#475);
#138=VERTEX_POINT('',#476);
#139=VERTEX_POINT('',#478);
#140=VERTEX_POINT('',#480);
#141=VERTEX_POINT('',#484);
#142=VERTEX_POINT('',#486);
#143=VERTEX_POINT('',#490);
#144=VERTEX_POINT('',#492);
#145=VERTEX_POINT('',#499);
#146=VERTEX_POINT('',#500);
#147=VERTEX_POINT('',#503);
#148=VERTEX_POINT('',#507);
#149=VERTEX_POINT('',#508);
#150=VERTEX_POINT('',#511);
#151=VERTEX_POINT('',#515);
#152=VERTEX_POINT('',#516);
#153=VERTEX_POINT('',#518);
#154=VERTEX_POINT('',#520);
#155=VERTEX_POINT('',#524);
#156=VERTEX_POINT('',#526);
#157=VERTEX_POINT('',#530);
#158=VERTEX_POINT('',#532);
#159=VERTEX_POINT('',#534);
#160=VERTEX_POINT('',#536);
#161=VERTEX_POINT('',#538);
#162=VERTEX_POINT('',#542);
#163=VERTEX_POINT('',#546);
#164=VERTEX_POINT('',#550);
#165=VERTEX_POINT('',#554);
#166=VERTEX_POINT('',#558);
#167=EDGE_CURVE('',#137,#138,#119,.T.);
#168=EDGE_CURVE('',#139,#137,#67,.T.);
#169=EDGE_CURVE('',#140,#139,#120,.T.);
#170=EDGE_CURVE('',#140,#138,#68,.T.);
#171=EDGE_CURVE('',#138,#141,#69,.T.);
#172=EDGE_CURVE('',#142,#140,#70,.T.);
#173=EDGE_CURVE('',#142,#141,#71,.T.);
#174=EDGE_CURVE('',#141,#143,#121,.T.);
#175=EDGE_CURVE('',#144,#142,#122,.T.);
#176=EDGE_CURVE('',#144,#143,#72,.T.);
#177=EDGE_CURVE('',#143,#137,#73,.T.);
#178=EDGE_CURVE('',#139,#144,#74,.T.);
#179=EDGE_CURVE('',#145,#146,#123,.T.);
#180=EDGE_CURVE('',#146,#145,#124,.T.);
#181=EDGE_CURVE('',#146,#147,#75,.T.);
#182=EDGE_CURVE('',#147,#147,#125,.T.);
#183=EDGE_CURVE('',#148,#149,#126,.T.);
#184=EDGE_CURVE('',#149,#148,#127,.T.);
#185=EDGE_CURVE('',#149,#150,#76,.T.);
#186=EDGE_CURVE('',#150,#150,#128,.T.);
#187=EDGE_CURVE('',#151,#152,#129,.T.);
#188=EDGE_CURVE('',#152,#153,#77,.T.);
#189=EDGE_CURVE('',#153,#154,#130,.T.);
#190=EDGE_CURVE('',#154,#151,#78,.T.);
#191=EDGE_CURVE('',#154,#155,#79,.T.);
#192=EDGE_CURVE('',#156,#155,#80,.T.);
#193=EDGE_CURVE('',#151,#156,#81,.T.);
#194=EDGE_CURVE('',#157,#153,#82,.T.);
#195=EDGE_CURVE('',#158,#157,#131,.T.);
#196=EDGE_CURVE('',#159,#158,#83,.T.);
#197=EDGE_CURVE('',#160,#159,#132,.T.);
#198=EDGE_CURVE('',#161,#160,#84,.T.);
#199=EDGE_CURVE('',#155,#161,#133,.T.);
#200=EDGE_CURVE('',#162,#156,#134,.T.);
#201=EDGE_CURVE('',#161,#162,#85,.T.);
#202=EDGE_CURVE('',#163,#160,#86,.T.);
#203=EDGE_CURVE('',#162,#163,#87,.T.);
#204=EDGE_CURVE('',#164,#163,#135,.T.);
#205=EDGE_CURVE('',#159,#164,#88,.T.);
#206=EDGE_CURVE('',#165,#158,#89,.T.);
#207=EDGE_CURVE('',#164,#165,#90,.T.);
#208=EDGE_CURVE('',#166,#165,#136,.T.);
#209=EDGE_CURVE('',#157,#166,#91,.T.);
#210=EDGE_CURVE('',#166,#152,#92,.T.);
#211=ORIENTED_EDGE('',*,*,#167,.F.);
#212=ORIENTED_EDGE('',*,*,#168,.F.);
#213=ORIENTED_EDGE('',*,*,#169,.F.);
#214=ORIENTED_EDGE('',*,*,#170,.T.);
#215=ORIENTED_EDGE('',*,*,#171,.F.);
#216=ORIENTED_EDGE('',*,*,#170,.F.);
#217=ORIENTED_EDGE('',*,*,#172,.F.);
#218=ORIENTED_EDGE('',*,*,#173,.T.);
#219=ORIENTED_EDGE('',*,*,#174,.F.);
#220=ORIENTED_EDGE('',*,*,#173,.F.);
#221=ORIENTED_EDGE('',*,*,#175,.F.);
#222=ORIENTED_EDGE('',*,*,#176,.T.);
#223=ORIENTED_EDGE('',*,*,#177,.F.);
#224=ORIENTED_EDGE('',*,*,#176,.F.);
#225=ORIENTED_EDGE('',*,*,#178,.F.);
#226=ORIENTED_EDGE('',*,*,#168,.T.);
#227=ORIENTED_EDGE('',*,*,#179,.F.);
#228=ORIENTED_EDGE('',*,*,#180,.F.);
#229=ORIENTED_EDGE('',*,*,#181,.T.);
#230=ORIENTED_EDGE('',*,*,#182,.F.);
#231=ORIENTED_EDGE('',*,*,#181,.F.);
#232=ORIENTED_EDGE('',*,*,#183,.F.);
#233=ORIENTED_EDGE('',*,*,#184,.F.);
#234=ORIENTED_EDGE('',*,*,#185,.T.);
#235=ORIENTED_EDGE('',*,*,#186,.F.);
#236=ORIENTED_EDGE('',*,*,#185,.F.);
#237=ORIENTED_EDGE('',*,*,#187,.T.);
#238=ORIENTED_EDGE('',*,*,#188,.T.);
#239=ORIENTED_EDGE('',*,*,#189,.T.);
#240=ORIENTED_EDGE('',*,*,#190,.T.);
#241=ORIENTED_EDGE('',*,*,#190,.F.);
#242=ORIENTED_EDGE('',*,*,#191,.T.);
#243=ORIENTED_EDGE('',*,*,#192,.F.);
#244=ORIENTED_EDGE('',*,*,#193,.F.);
#245=ORIENTED_EDGE('',*,*,#189,.F.);
#246=ORIENTED_EDGE('',*,*,#194,.F.);
#247=ORIENTED_EDGE('',*,*,#195,.F.);
#248=ORIENTED_EDGE('',*,*,#196,.F.);
#249=ORIENTED_EDGE('',*,*,#197,.F.);
#250=ORIENTED_EDGE('',*,*,#198,.F.);
#251=ORIENTED_EDGE('',*,*,#199,.F.);
#252=ORIENTED_EDGE('',*,*,#191,.F.);
#253=ORIENTED_EDGE('',*,*,#174,.T.);
#254=ORIENTED_EDGE('',*,*,#177,.T.);
#255=ORIENTED_EDGE('',*,*,#167,.T.);
#256=ORIENTED_EDGE('',*,*,#171,.T.);
#257=ORIENTED_EDGE('',*,*,#182,.T.);
#258=ORIENTED_EDGE('',*,*,#186,.T.);
#259=ORIENTED_EDGE('',*,*,#200,.T.);
#260=ORIENTED_EDGE('',*,*,#192,.T.);
#261=ORIENTED_EDGE('',*,*,#199,.T.);
#262=ORIENTED_EDGE('',*,*,#201,.T.);
#263=ORIENTED_EDGE('',*,*,#201,.F.);
#264=ORIENTED_EDGE('',*,*,#198,.T.);
#265=ORIENTED_EDGE('',*,*,#202,.F.);
#266=ORIENTED_EDGE('',*,*,#203,.F.);
#267=ORIENTED_EDGE('',*,*,#204,.T.);
#268=ORIENTED_EDGE('',*,*,#202,.T.);
#269=ORIENTED_EDGE('',*,*,#197,.T.);
#270=ORIENTED_EDGE('',*,*,#205,.T.);
#271=ORIENTED_EDGE('',*,*,#205,.F.);
#272=ORIENTED_EDGE('',*,*,#196,.T.);
#273=ORIENTED_EDGE('',*,*,#206,.F.);
#274=ORIENTED_EDGE('',*,*,#207,.F.);
#275=ORIENTED_EDGE('',*,*,#208,.T.);
#276=ORIENTED_EDGE('',*,*,#206,.T.);
#277=ORIENTED_EDGE('',*,*,#195,.T.);
#278=ORIENTED_EDGE('',*,*,#209,.T.);
#279=ORIENTED_EDGE('',*,*,#188,.F.);
#280=ORIENTED_EDGE('',*,*,#210,.F.);
#281=ORIENTED_EDGE('',*,*,#209,.F.);
#282=ORIENTED_EDGE('',*,*,#194,.T.);
#283=ORIENTED_EDGE('',*,*,#187,.F.);
#284=ORIENTED_EDGE('',*,*,#193,.T.);
#285=ORIENTED_EDGE('',*,*,#200,.F.);
#286=ORIENTED_EDGE('',*,*,#203,.T.);
#287=ORIENTED_EDGE('',*,*,#204,.F.);
#288=ORIENTED_EDGE('',*,*,#207,.T.);
#289=ORIENTED_EDGE('',*,*,#208,.F.);
#290=ORIENTED_EDGE('',*,*,#210,.T.);
#291=ORIENTED_EDGE('',*,*,#175,.T.);
#292=ORIENTED_EDGE('',*,*,#172,.T.);
#293=ORIENTED_EDGE('',*,*,#169,.T.);
#294=ORIENTED_EDGE('',*,*,#178,.T.);
#295=ORIENTED_EDGE('',*,*,#179,.T.);
#296=ORIENTED_EDGE('',*,*,#180,.T.);
#297=ORIENTED_EDGE('',*,*,#183,.T.);
#298=ORIENTED_EDGE('',*,*,#184,.T.);
#299=CYLINDRICAL_SURFACE('',#343,4.2);
#300=CYLINDRICAL_SURFACE('',#347,4.2);
#301=CYLINDRICAL_SURFACE('',#351,4.2);
#302=CYLINDRICAL_SURFACE('',#355,4.2);
#303=CYLINDRICAL_SURFACE('',#359,5.);
#304=CYLINDRICAL_SURFACE('',#367,5.);
#305=CYLINDRICAL_SURFACE('',#370,5.);
#306=CYLINDRICAL_SURFACE('',#373,5.);
#307=ADVANCED_FACE('',(#29),#299,.F.);
#308=ADVANCED_FACE('',(#30),#21,.F.);
#309=ADVANCED_FACE('',(#31),#300,.F.);
#310=ADVANCED_FACE('',(#32),#22,.F.);
#311=ADVANCED_FACE('',(#33),#301,.F.);
#312=ADVANCED_FACE('',(#34),#302,.F.);
#313=ADVANCED_FACE('',(#35),#303,.T.);
#314=ADVANCED_FACE('',(#36),#23,.T.);
#315=ADVANCED_FACE('',(#37,#15,#16,#17),#24,.F.);
#316=ADVANCED_FACE('',(#38),#304,.T.);
#317=ADVANCED_FACE('',(#39),#25,.T.);
#318=ADVANCED_FACE('',(#40),#305,.T.);
#319=ADVANCED_FACE('',(#41),#26,.T.);
#320=ADVANCED_FACE('',(#42),#306,.T.);
#321=ADVANCED_FACE('',(#43),#27,.T.);
#322=ADVANCED_FACE('',(#44,#18,#19,#20),#28,.T.);
#323=CLOSED_SHELL('',(#307,#308,#309,#310,#311,#312,#313,#314,#315,#316,
#317,#318,#319,#320,#321,#322));
#324=DERIVED_UNIT_ELEMENT(#326,1.);
#325=DERIVED_UNIT_ELEMENT(#569,3.);
#326=(
MASS_UNIT()
NAMED_UNIT(*)
SI_UNIT($,.GRAM.)
);
#327=DERIVED_UNIT((#324,#325));
#328=MEASURE_REPRESENTATION_ITEM('density measure',
POSITIVE_RATIO_MEASURE(7.85),#327);
#329=PROPERTY_DEFINITION_REPRESENTATION(#334,#331);
#330=PROPERTY_DEFINITION_REPRESENTATION(#335,#332);
#331=REPRESENTATION('material name',(#333),#566);
#332=REPRESENTATION('density',(#328),#566);
#333=DESCRIPTIVE_REPRESENTATION_ITEM('1.0037 St 37-2','1.0037 St 37-2');
#334=PROPERTY_DEFINITION('material property','material name',#576);
#335=PROPERTY_DEFINITION('material property','density of part',#576);
#336=DATE_TIME_ROLE('creation_date');
#337=APPLIED_DATE_AND_TIME_ASSIGNMENT(#338,#336,(#576));
#338=DATE_AND_TIME(#339,#340);
#339=CALENDAR_DATE(2019,25,11);
#340=LOCAL_TIME(10,38,32.,#341);
#341=COORDINATED_UNIVERSAL_TIME_OFFSET(0,0,.BEHIND.);
#342=AXIS2_PLACEMENT_3D('placement',#473,#377,#378);
#343=AXIS2_PLACEMENT_3D('',#474,#379,#380);
#344=AXIS2_PLACEMENT_3D('',#477,#381,#382);
#345=AXIS2_PLACEMENT_3D('',#481,#384,#385);
#346=AXIS2_PLACEMENT_3D('',#483,#387,#388);
#347=AXIS2_PLACEMENT_3D('',#489,#392,#393);
#348=AXIS2_PLACEMENT_3D('',#491,#394,#395);
#349=AXIS2_PLACEMENT_3D('',#493,#396,#397);
#350=AXIS2_PLACEMENT_3D('',#495,#399,#400);
#351=AXIS2_PLACEMENT_3D('',#498,#403,#404);
#352=AXIS2_PLACEMENT_3D('',#501,#405,#406);
#353=AXIS2_PLACEMENT_3D('',#502,#407,#408);
#354=AXIS2_PLACEMENT_3D('',#505,#410,#411);
#355=AXIS2_PLACEMENT_3D('',#506,#412,#413);
#356=AXIS2_PLACEMENT_3D('',#509,#414,#415);
#357=AXIS2_PLACEMENT_3D('',#510,#416,#417);
#358=AXIS2_PLACEMENT_3D('',#513,#419,#420);
#359=AXIS2_PLACEMENT_3D('',#514,#421,#422);
#360=AXIS2_PLACEMENT_3D('',#517,#423,#424);
#361=AXIS2_PLACEMENT_3D('',#521,#426,#427);
#362=AXIS2_PLACEMENT_3D('',#523,#429,#430);
#363=AXIS2_PLACEMENT_3D('',#529,#434,#435);
#364=AXIS2_PLACEMENT_3D('',#533,#437,#438);
#365=AXIS2_PLACEMENT_3D('',#537,#440,#441);
#366=AXIS2_PLACEMENT_3D('',#540,#443,#444);
#367=AXIS2_PLACEMENT_3D('',#541,#445,#446);
#368=AXIS2_PLACEMENT_3D('',#543,#447,#448);
#369=AXIS2_PLACEMENT_3D('',#545,#450,#451);
#370=AXIS2_PLACEMENT_3D('',#549,#454,#455);
#371=AXIS2_PLACEMENT_3D('',#551,#456,#457);
#372=AXIS2_PLACEMENT_3D('',#553,#459,#460);
#373=AXIS2_PLACEMENT_3D('',#557,#463,#464);
#374=AXIS2_PLACEMENT_3D('',#559,#465,#466);
#375=AXIS2_PLACEMENT_3D('',#561,#468,#469);
#376=AXIS2_PLACEMENT_3D('',#563,#471,#472);
#377=DIRECTION('axis',(0.,0.,1.));
#378=DIRECTION('refdir',(1.,0.,0.));
#379=DIRECTION('center_axis',(0.,0.,-1.));
#380=DIRECTION('ref_axis',(1.,0.,0.));
#381=DIRECTION('center_axis',(0.,0.,1.));
#382=DIRECTION('ref_axis',(1.,0.,0.));
#383=DIRECTION('',(0.,0.,-1.));
#384=DIRECTION('center_axis',(0.,0.,-1.));
#385=DIRECTION('ref_axis',(1.,0.,0.));
#386=DIRECTION('',(0.,0.,-1.));
#387=DIRECTION('center_axis',(-1.,-4.16333634234434E-17,0.));
#388=DIRECTION('ref_axis',(-4.16333634234434E-17,1.,0.));
#389=DIRECTION('',(4.16333634234434E-17,-1.,0.));
#390=DIRECTION('',(-4.16333634234434E-17,1.,0.));
#391=DIRECTION('',(0.,0.,-1.));
#392=DIRECTION('center_axis',(0.,0.,-1.));
#393=DIRECTION('ref_axis',(-1.,0.,0.));
#394=DIRECTION('center_axis',(0.,0.,1.));
#395=DIRECTION('ref_axis',(-1.,0.,0.));
#396=DIRECTION('center_axis',(0.,0.,-1.));
#397=DIRECTION('ref_axis',(-1.,0.,0.));
#398=DIRECTION('',(0.,0.,-1.));
#399=DIRECTION('center_axis',(1.,-5.55111512312578E-17,0.));
#400=DIRECTION('ref_axis',(-5.55111512312578E-17,-1.,0.));
#401=DIRECTION('',(5.55111512312578E-17,1.,0.));
#402=DIRECTION('',(-5.55111512312578E-17,-1.,0.));
#403=DIRECTION('center_axis',(0.,0.,1.));
#404=DIRECTION('ref_axis',(1.,0.,0.));
#405=DIRECTION('center_axis',(0.,0.,-1.));
#406=DIRECTION('ref_axis',(1.,0.,0.));
#407=DIRECTION('center_axis',(0.,0.,-1.));
#408=DIRECTION('ref_axis',(1.,0.,0.));
#409=DIRECTION('',(0.,0.,-1.));
#410=DIRECTION('center_axis',(0.,0.,1.));
#411=DIRECTION('ref_axis',(1.,0.,0.));
#412=DIRECTION('center_axis',(0.,0.,1.));
#413=DIRECTION('ref_axis',(1.,0.,0.));
#414=DIRECTION('center_axis',(0.,0.,-1.));
#415=DIRECTION('ref_axis',(1.,0.,0.));
#416=DIRECTION('center_axis',(0.,0.,-1.));
#417=DIRECTION('ref_axis',(1.,0.,0.));
#418=DIRECTION('',(0.,0.,-1.));
#419=DIRECTION('center_axis',(0.,0.,1.));
#420=DIRECTION('ref_axis',(1.,0.,0.));
#421=DIRECTION('center_axis',(0.,0.,1.));
#422=DIRECTION('ref_axis',(0.707106781186547,0.707106781186547,0.));
#423=DIRECTION('center_axis',(0.,0.,-1.));
#424=DIRECTION('ref_axis',(0.707106781186547,0.707106781186547,0.));
#425=DIRECTION('',(0.,0.,-1.));
#426=DIRECTION('center_axis',(0.,0.,1.));
#427=DIRECTION('ref_axis',(0.707106781186547,0.707106781186547,0.));
#428=DIRECTION('',(0.,0.,1.));
#429=DIRECTION('center_axis',(0.,1.,0.));
#430=DIRECTION('ref_axis',(-1.,0.,0.));
#431=DIRECTION('',(-1.,0.,0.));
#432=DIRECTION('',(0.,0.,-1.));
#433=DIRECTION('',(-1.,0.,0.));
#434=DIRECTION('center_axis',(0.,0.,1.));
#435=DIRECTION('ref_axis',(1.,0.,0.));
#436=DIRECTION('',(-1.77635683940025E-16,1.,0.));
#437=DIRECTION('center_axis',(0.,0.,1.));
#438=DIRECTION('ref_axis',(0.707106781186547,-0.707106781186547,0.));
#439=DIRECTION('',(1.,1.97372982155583E-16,0.));
#440=DIRECTION('center_axis',(0.,0.,1.));
#441=DIRECTION('ref_axis',(-0.707106781186547,-0.707106781186547,0.));
#442=DIRECTION('',(8.88178419700125E-17,-1.,0.));
#443=DIRECTION('center_axis',(0.,0.,1.));
#444=DIRECTION('ref_axis',(-0.707106781186547,0.707106781186547,0.));
#445=DIRECTION('center_axis',(0.,0.,1.));
#446=DIRECTION('ref_axis',(-0.707106781186547,0.707106781186547,0.));
#447=DIRECTION('center_axis',(0.,0.,-1.));
#448=DIRECTION('ref_axis',(-0.707106781186547,0.707106781186547,0.));
#449=DIRECTION('',(0.,0.,1.));
#450=DIRECTION('center_axis',(-1.,-8.88178419700125E-17,0.));
#451=DIRECTION('ref_axis',(8.88178419700125E-17,-1.,0.));
#452=DIRECTION('',(0.,0.,-1.));
#453=DIRECTION('',(8.88178419700125E-17,-1.,0.));
#454=DIRECTION('center_axis',(0.,0.,1.));
#455=DIRECTION('ref_axis',(-0.707106781186547,-0.707106781186547,0.));
#456=DIRECTION('center_axis',(0.,0.,-1.));
#457=DIRECTION('ref_axis',(-0.707106781186547,-0.707106781186547,0.));
#458=DIRECTION('',(0.,0.,1.));
#459=DIRECTION('center_axis',(1.97372982155583E-16,-1.,0.));
#460=DIRECTION('ref_axis',(1.,1.97372982155583E-16,0.));
#461=DIRECTION('',(0.,0.,-1.));
#462=DIRECTION('',(1.,1.97372982155583E-16,0.));
#463=DIRECTION('center_axis',(0.,0.,1.));
#464=DIRECTION('ref_axis',(0.707106781186547,-0.707106781186547,0.));
#465=DIRECTION('center_axis',(0.,0.,-1.));
#466=DIRECTION('ref_axis',(0.707106781186547,-0.707106781186547,0.));
#467=DIRECTION('',(0.,0.,1.));
#468=DIRECTION('center_axis',(1.,1.77635683940025E-16,0.));
#469=DIRECTION('ref_axis',(-1.77635683940025E-16,1.,0.));
#470=DIRECTION('',(-1.77635683940025E-16,1.,0.));
#471=DIRECTION('center_axis',(0.,0.,1.));
#472=DIRECTION('ref_axis',(1.,0.,0.));
#473=CARTESIAN_POINT('',(0.,0.,0.));
#474=CARTESIAN_POINT('Origin',(1.60245081093358E-14,37.5,4.));
#475=CARTESIAN_POINT('',(4.20000000000002,37.5,0.));
#476=CARTESIAN_POINT('',(-4.19999999999999,37.5,0.));
#477=CARTESIAN_POINT('Origin',(1.60245081093358E-14,37.5,0.));
#478=CARTESIAN_POINT('',(4.20000000000002,37.5,4.));
#479=CARTESIAN_POINT('',(4.20000000000002,37.5,4.));
#480=CARTESIAN_POINT('',(-4.19999999999999,37.5,4.));
#481=CARTESIAN_POINT('Origin',(1.60245081093358E-14,37.5,4.));
#482=CARTESIAN_POINT('',(-4.19999999999999,37.5,4.));
#483=CARTESIAN_POINT('Origin',(-4.19999999999999,-2.50000000000001,4.));
#484=CARTESIAN_POINT('',(-4.19999999999999,-2.50000000000001,0.));
#485=CARTESIAN_POINT('',(-4.19999999999999,-1.25000000000001,0.));
#486=CARTESIAN_POINT('',(-4.19999999999999,-2.50000000000001,4.));
#487=CARTESIAN_POINT('',(-4.19999999999999,-1.25000000000001,4.));
#488=CARTESIAN_POINT('',(-4.19999999999999,-2.50000000000001,4.));
#489=CARTESIAN_POINT('Origin',(1.60245081093358E-14,-2.50000000000001,4.));
#490=CARTESIAN_POINT('',(4.20000000000002,-2.50000000000001,0.));
#491=CARTESIAN_POINT('Origin',(1.60245081093358E-14,-2.50000000000001,0.));
#492=CARTESIAN_POINT('',(4.20000000000002,-2.50000000000001,4.));
#493=CARTESIAN_POINT('Origin',(1.60245081093358E-14,-2.50000000000001,4.));
#494=CARTESIAN_POINT('',(4.20000000000002,-2.50000000000001,4.));
#495=CARTESIAN_POINT('Origin',(4.20000000000002,37.5,4.));
#496=CARTESIAN_POINT('',(4.20000000000002,18.75,0.));
#497=CARTESIAN_POINT('',(4.20000000000002,18.75,4.));
#498=CARTESIAN_POINT('Origin',(12.5,-27.5,-105.731490466502));
#499=CARTESIAN_POINT('',(16.7,-27.5,4.));
#500=CARTESIAN_POINT('',(8.3,-27.5,4.));
#501=CARTESIAN_POINT('Origin',(12.5,-27.5,4.));
#502=CARTESIAN_POINT('Origin',(12.5,-27.5,4.));
#503=CARTESIAN_POINT('',(8.3,-27.5,0.));
#504=CARTESIAN_POINT('',(8.3,-27.5,-105.731490466502));
#505=CARTESIAN_POINT('Origin',(12.5,-27.5,0.));
#506=CARTESIAN_POINT('Origin',(-12.5,-27.5,-105.731490466502));
#507=CARTESIAN_POINT('',(-8.3,-27.5,4.));
#508=CARTESIAN_POINT('',(-16.7,-27.5,4.));
#509=CARTESIAN_POINT('Origin',(-12.5,-27.5,4.));
#510=CARTESIAN_POINT('Origin',(-12.5,-27.5,4.));
#511=CARTESIAN_POINT('',(-16.7,-27.5,0.));
#512=CARTESIAN_POINT('',(-16.7,-27.5,-105.731490466502));
#513=CARTESIAN_POINT('Origin',(-12.5,-27.5,0.));
#514=CARTESIAN_POINT('Origin',(17.5,45.,0.));
#515=CARTESIAN_POINT('',(17.5,50.,4.));
#516=CARTESIAN_POINT('',(22.5,45.,4.));
#517=CARTESIAN_POINT('Origin',(17.5,45.,4.));
#518=CARTESIAN_POINT('',(22.5,45.,0.));
#519=CARTESIAN_POINT('',(22.5,45.,0.));
#520=CARTESIAN_POINT('',(17.5,50.,0.));
#521=CARTESIAN_POINT('Origin',(17.5,45.,0.));
#522=CARTESIAN_POINT('',(17.5,50.,0.));
#523=CARTESIAN_POINT('Origin',(22.5,50.,0.));
#524=CARTESIAN_POINT('',(-17.5,50.,0.));
#525=CARTESIAN_POINT('',(22.5,50.,0.));
#526=CARTESIAN_POINT('',(-17.5,50.,4.));
#527=CARTESIAN_POINT('',(-17.5,50.,0.));
#528=CARTESIAN_POINT('',(22.5,50.,4.));
#529=CARTESIAN_POINT('Origin',(-9.1880526175875E-16,-5.5128315705525E-15,
0.));
#530=CARTESIAN_POINT('',(22.5,-45.,0.));
#531=CARTESIAN_POINT('',(22.5,-50.,0.));
#532=CARTESIAN_POINT('',(17.5,-50.,0.));
#533=CARTESIAN_POINT('Origin',(17.5,-45.,0.));
#534=CARTESIAN_POINT('',(-17.5,-50.,0.));
#535=CARTESIAN_POINT('',(-22.5,-50.,0.));
#536=CARTESIAN_POINT('',(-22.5,-45.,0.));
#537=CARTESIAN_POINT('Origin',(-17.5,-45.,0.));
#538=CARTESIAN_POINT('',(-22.5,45.,0.));
#539=CARTESIAN_POINT('',(-22.5,50.,0.));
#540=CARTESIAN_POINT('Origin',(-17.5,45.,0.));
#541=CARTESIAN_POINT('Origin',(-17.5,45.,0.));
#542=CARTESIAN_POINT('',(-22.5,45.,4.));
#543=CARTESIAN_POINT('Origin',(-17.5,45.,4.));
#544=CARTESIAN_POINT('',(-22.5,45.,0.));
#545=CARTESIAN_POINT('Origin',(-22.5,50.,0.));
#546=CARTESIAN_POINT('',(-22.5,-45.,4.));
#547=CARTESIAN_POINT('',(-22.5,-45.,0.));
#548=CARTESIAN_POINT('',(-22.5,50.,4.));
#549=CARTESIAN_POINT('Origin',(-17.5,-45.,0.));
#550=CARTESIAN_POINT('',(-17.5,-50.,4.));
#551=CARTESIAN_POINT('Origin',(-17.5,-45.,4.));
#552=CARTESIAN_POINT('',(-17.5,-50.,0.));
#553=CARTESIAN_POINT('Origin',(-22.5,-50.,0.));
#554=CARTESIAN_POINT('',(17.5,-50.,4.));
#555=CARTESIAN_POINT('',(17.5,-50.,0.));
#556=CARTESIAN_POINT('',(-22.5,-50.,4.));
#557=CARTESIAN_POINT('Origin',(17.5,-45.,0.));
#558=CARTESIAN_POINT('',(22.5,-45.,4.));
#559=CARTESIAN_POINT('Origin',(17.5,-45.,4.));
#560=CARTESIAN_POINT('',(22.5,-45.,0.));
#561=CARTESIAN_POINT('Origin',(22.5,-50.,0.));
#562=CARTESIAN_POINT('',(22.5,-50.,4.));
#563=CARTESIAN_POINT('Origin',(0.,-8.88178419700125E-15,4.));
#564=UNCERTAINTY_MEASURE_WITH_UNIT(LENGTH_MEASURE(0.01),#568,
'DISTANCE_ACCURACY_VALUE',
'Maximum model space distance between geometric entities at asserted c
onnectivities');
#565=UNCERTAINTY_MEASURE_WITH_UNIT(LENGTH_MEASURE(0.01),#568,
'DISTANCE_ACCURACY_VALUE',
'Maximum model space distance between geometric entities at asserted c
onnectivities');
#566=(
GEOMETRIC_REPRESENTATION_CONTEXT(3)
GLOBAL_UNCERTAINTY_ASSIGNED_CONTEXT((#564))
GLOBAL_UNIT_ASSIGNED_CONTEXT((#568,#571,#570))
REPRESENTATION_CONTEXT('','3D')
);
#567=(
GEOMETRIC_REPRESENTATION_CONTEXT(3)
GLOBAL_UNCERTAINTY_ASSIGNED_CONTEXT((#565))
GLOBAL_UNIT_ASSIGNED_CONTEXT((#568,#571,#570))
REPRESENTATION_CONTEXT('','3D')
);
#568=(
LENGTH_UNIT()
NAMED_UNIT(*)
SI_UNIT(.MILLI.,.METRE.)
);
#569=(
LENGTH_UNIT()
NAMED_UNIT(*)
SI_UNIT(.CENTI.,.METRE.)
);
#570=(
NAMED_UNIT(*)
SI_UNIT($,.STERADIAN.)
SOLID_ANGLE_UNIT()
);
#571=(
NAMED_UNIT(*)
PLANE_ANGLE_UNIT()
SI_UNIT($,.RADIAN.)
);
#572=SHAPE_DEFINITION_REPRESENTATION(#573,#574);
#573=PRODUCT_DEFINITION_SHAPE('',$,#576);
#574=SHAPE_REPRESENTATION('',(#342),#566);
#575=PRODUCT_DEFINITION_CONTEXT('part definition',#580,'design');
#576=PRODUCT_DEFINITION('81034',
'81034 KriTec Vario-Lasche 10 Raster 45 100x45x4 St verzinkt',#577,#575);
#577=PRODUCT_DEFINITION_FORMATION('',$,#582);
#578=PRODUCT_RELATED_PRODUCT_CATEGORY(
'81034 KriTec Vario-Lasche 10 Raster 45 100x45x4 St verzinkt',
'81034 KriTec Vario-Lasche 10 Raster 45 100x45x4 St verzinkt',(#582));
#579=APPLICATION_PROTOCOL_DEFINITION('international standard',
'automotive_design',2009,#580);
#580=APPLICATION_CONTEXT(
'Core Data for Automotive Mechanical Design Process');
#581=PRODUCT_CONTEXT('part definition',#580,'mechanical');
#582=PRODUCT('81034',
'81034 KriTec Vario-Lasche 10 Raster 45 100x45x4 St verzinkt',
'KriTec Vario-Lasche 10 Raster 45 100x45x4 St verzinkt',(#581));
#583=PRESENTATION_STYLE_ASSIGNMENT((#584));
#584=SURFACE_STYLE_USAGE(.BOTH.,#585);
#585=SURFACE_SIDE_STYLE('',(#586));
#586=SURFACE_STYLE_FILL_AREA(#587);
#587=FILL_AREA_STYLE('',(#588));
#588=FILL_AREA_STYLE_COLOUR('',#589);
#589=COLOUR_RGB('',0.996078431372549,0.996078431372549,1.);
ENDSEC;
END-ISO-10303-21;
