ISO-10303-21;
HEADER;
/* Generated by software containing ST-Developer
 * from STEP Tools, Inc. (www.steptools.com) 
 */

FILE_DESCRIPTION(
/* description */ (''),
/* implementation_level */ '2;1');

FILE_NAME(
/* name */ 
'S:\\Bilder_neu\\80039_KriTec_Abdeckprofil_10_PP_Sichtfl\X\E4che_silbe
r_gepraegt\\Inventordateien\\80039_KriTec_Abdeckprofil_10_PP_Sichtflae
che_silber_gepraegt.stp',
/* time_stamp */ '2018-10-19T16:02:56+02:00',
/* author */ ('jendrek'),
/* organization */ ('TraceParts S.A.'),
/* preprocessor_version */ 'ST-DEVELOPER v16.1',
/* originating_system */ 'Autodesk Inventor 2016',
/* authorisation */ '');

FILE_SCHEMA (('AUTOMOTIVE_DESIGN { 1 0 10303 214 3 1 1 }'));
ENDSEC;

DATA;
#10=MECHANICAL_DESIGN_GEOMETRIC_PRESENTATION_REPRESENTATION('',(#371,#372,
#373,#369,#370,#374,#375,#376,#381,#377,#378,#379,#380,#382,#383,#384,#385,
#386,#387,#388,#368),#665);
#11=SHAPE_REPRESENTATION_RELATIONSHIP('SRR','None',#674,#12);
#12=ADVANCED_BREP_SHAPE_REPRESENTATION('',(#13),#664);
#13=MANIFOLD_SOLID_BREP('Solid1',#409);
#14=CYLINDRICAL_SURFACE('',#419,0.2);
#15=CYLINDRICAL_SURFACE('',#427,0.2);
#16=CYLINDRICAL_SURFACE('',#437,2.5);
#17=CYLINDRICAL_SURFACE('',#438,2.5);
#18=CYLINDRICAL_SURFACE('',#441,0.2);
#19=CYLINDRICAL_SURFACE('',#442,0.2);
#20=CIRCLE('',#413,0.2);
#21=CIRCLE('',#414,0.2);
#22=CIRCLE('',#415,2.5);
#23=CIRCLE('',#416,2.5);
#24=CIRCLE('',#417,0.2);
#25=CIRCLE('',#418,0.2);
#26=CIRCLE('',#420,0.2);
#27=CIRCLE('',#422,0.2);
#28=CIRCLE('',#423,0.2);
#29=CIRCLE('',#424,2.5);
#30=CIRCLE('',#425,2.5);
#31=CIRCLE('',#426,0.2);
#32=FACE_OUTER_BOUND('',#52,.T.);
#33=FACE_OUTER_BOUND('',#53,.T.);
#34=FACE_OUTER_BOUND('',#54,.T.);
#35=FACE_OUTER_BOUND('',#55,.T.);
#36=FACE_OUTER_BOUND('',#56,.T.);
#37=FACE_OUTER_BOUND('',#57,.T.);
#38=FACE_OUTER_BOUND('',#58,.T.);
#39=FACE_OUTER_BOUND('',#59,.T.);
#40=FACE_OUTER_BOUND('',#60,.T.);
#41=FACE_OUTER_BOUND('',#61,.T.);
#42=FACE_OUTER_BOUND('',#62,.T.);
#43=FACE_OUTER_BOUND('',#63,.T.);
#44=FACE_OUTER_BOUND('',#64,.T.);
#45=FACE_OUTER_BOUND('',#65,.T.);
#46=FACE_OUTER_BOUND('',#66,.T.);
#47=FACE_OUTER_BOUND('',#67,.T.);
#48=FACE_OUTER_BOUND('',#68,.T.);
#49=FACE_OUTER_BOUND('',#69,.T.);
#50=FACE_OUTER_BOUND('',#70,.T.);
#51=FACE_OUTER_BOUND('',#71,.T.);
#52=EDGE_LOOP('',(#246,#247,#248,#249));
#53=EDGE_LOOP('',(#250,#251,#252,#253,#254,#255,#256,#257,#258,#259,#260,
#261,#262,#263,#264,#265,#266,#267));
#54=EDGE_LOOP('',(#268,#269,#270,#271));
#55=EDGE_LOOP('',(#272,#273,#274,#275,#276,#277,#278,#279,#280,#281,#282,
#283,#284,#285,#286,#287,#288,#289));
#56=EDGE_LOOP('',(#290,#291,#292,#293));
#57=EDGE_LOOP('',(#294,#295,#296,#297));
#58=EDGE_LOOP('',(#298,#299,#300,#301));
#59=EDGE_LOOP('',(#302,#303,#304,#305));
#60=EDGE_LOOP('',(#306,#307,#308,#309));
#61=EDGE_LOOP('',(#310,#311,#312,#313));
#62=EDGE_LOOP('',(#314,#315,#316,#317));
#63=EDGE_LOOP('',(#318,#319,#320,#321));
#64=EDGE_LOOP('',(#322,#323,#324,#325));
#65=EDGE_LOOP('',(#326,#327,#328,#329));
#66=EDGE_LOOP('',(#330,#331,#332,#333));
#67=EDGE_LOOP('',(#334,#335,#336,#337));
#68=EDGE_LOOP('',(#338,#339,#340,#341));
#69=EDGE_LOOP('',(#342,#343,#344,#345));
#70=EDGE_LOOP('',(#346,#347,#348,#349));
#71=EDGE_LOOP('',(#350,#351,#352,#353));
#72=LINE('',#555,#114);
#73=LINE('',#557,#115);
#74=LINE('',#559,#116);
#75=LINE('',#560,#117);
#76=LINE('',#565,#118);
#77=LINE('',#569,#119);
#78=LINE('',#571,#120);
#79=LINE('',#573,#121);
#80=LINE('',#577,#122);
#81=LINE('',#579,#123);
#82=LINE('',#581,#124);
#83=LINE('',#585,#125);
#84=LINE('',#587,#126);
#85=LINE('',#589,#127);
#86=LINE('',#593,#128);
#87=LINE('',#598,#129);
#88=LINE('',#603,#130);
#89=LINE('',#607,#131);
#90=LINE('',#609,#132);
#91=LINE('',#611,#133);
#92=LINE('',#615,#134);
#93=LINE('',#617,#135);
#94=LINE('',#619,#136);
#95=LINE('',#623,#137);
#96=LINE('',#625,#138);
#97=LINE('',#627,#139);
#98=LINE('',#630,#140);
#99=LINE('',#632,#141);
#100=LINE('',#634,#142);
#101=LINE('',#635,#143);
#102=LINE('',#637,#144);
#103=LINE('',#638,#145);
#104=LINE('',#640,#146);
#105=LINE('',#642,#147);
#106=LINE('',#644,#148);
#107=LINE('',#645,#149);
#108=LINE('',#647,#150);
#109=LINE('',#649,#151);
#110=LINE('',#651,#152);
#111=LINE('',#653,#153);
#112=LINE('',#656,#154);
#113=LINE('',#659,#155);
#114=VECTOR('',#447,1000.);
#115=VECTOR('',#448,11.2);
#116=VECTOR('',#449,1000.);
#117=VECTOR('',#450,11.2);
#118=VECTOR('',#455,1.2);
#119=VECTOR('',#458,0.5);
#120=VECTOR('',#459,4.50258472163759);
#121=VECTOR('',#460,0.338678321072776);
#122=VECTOR('',#463,5.90338885725818);
#123=VECTOR('',#464,8.2);
#124=VECTOR('',#465,5.90338885725818);
#125=VECTOR('',#468,0.338678321072776);
#126=VECTOR('',#469,4.50258472163759);
#127=VECTOR('',#470,0.5);
#128=VECTOR('',#473,1.2);
#129=VECTOR('',#480,1000.);
#130=VECTOR('',#485,1.2);
#131=VECTOR('',#488,0.5);
#132=VECTOR('',#489,4.5025847216376);
#133=VECTOR('',#490,0.338678321072775);
#134=VECTOR('',#493,5.90338885725818);
#135=VECTOR('',#494,8.2);
#136=VECTOR('',#495,5.90338885725818);
#137=VECTOR('',#498,0.338678321072776);
#138=VECTOR('',#499,4.50258472163759);
#139=VECTOR('',#500,0.5);
#140=VECTOR('',#503,1.2);
#141=VECTOR('',#506,1000.);
#142=VECTOR('',#509,1000.);
#143=VECTOR('',#510,1000.);
#144=VECTOR('',#513,1000.);
#145=VECTOR('',#514,1000.);
#146=VECTOR('',#517,1000.);
#147=VECTOR('',#520,1000.);
#148=VECTOR('',#523,1000.);
#149=VECTOR('',#524,1000.);
#150=VECTOR('',#527,1000.);
#151=VECTOR('',#530,1000.);
#152=VECTOR('',#533,1000.);
#153=VECTOR('',#536,1000.);
#154=VECTOR('',#541,1000.);
#155=VECTOR('',#546,1000.);
#156=VERTEX_POINT('',#553);
#157=VERTEX_POINT('',#554);
#158=VERTEX_POINT('',#556);
#159=VERTEX_POINT('',#558);
#160=VERTEX_POINT('',#562);
#161=VERTEX_POINT('',#564);
#162=VERTEX_POINT('',#566);
#163=VERTEX_POINT('',#568);
#164=VERTEX_POINT('',#570);
#165=VERTEX_POINT('',#572);
#166=VERTEX_POINT('',#574);
#167=VERTEX_POINT('',#576);
#168=VERTEX_POINT('',#578);
#169=VERTEX_POINT('',#580);
#170=VERTEX_POINT('',#582);
#171=VERTEX_POINT('',#584);
#172=VERTEX_POINT('',#586);
#173=VERTEX_POINT('',#588);
#174=VERTEX_POINT('',#590);
#175=VERTEX_POINT('',#592);
#176=VERTEX_POINT('',#596);
#177=VERTEX_POINT('',#600);
#178=VERTEX_POINT('',#602);
#179=VERTEX_POINT('',#604);
#180=VERTEX_POINT('',#606);
#181=VERTEX_POINT('',#608);
#182=VERTEX_POINT('',#610);
#183=VERTEX_POINT('',#612);
#184=VERTEX_POINT('',#614);
#185=VERTEX_POINT('',#616);
#186=VERTEX_POINT('',#618);
#187=VERTEX_POINT('',#620);
#188=VERTEX_POINT('',#622);
#189=VERTEX_POINT('',#624);
#190=VERTEX_POINT('',#626);
#191=VERTEX_POINT('',#628);
#192=EDGE_CURVE('',#156,#157,#72,.T.);
#193=EDGE_CURVE('',#158,#156,#73,.T.);
#194=EDGE_CURVE('',#159,#158,#74,.T.);
#195=EDGE_CURVE('',#157,#159,#75,.T.);
#196=EDGE_CURVE('',#160,#159,#20,.T.);
#197=EDGE_CURVE('',#160,#161,#76,.T.);
#198=EDGE_CURVE('',#162,#161,#21,.T.);
#199=EDGE_CURVE('',#162,#163,#77,.T.);
#200=EDGE_CURVE('',#164,#163,#78,.T.);
#201=EDGE_CURVE('',#164,#165,#79,.T.);
#202=EDGE_CURVE('',#166,#165,#22,.T.);
#203=EDGE_CURVE('',#167,#166,#80,.T.);
#204=EDGE_CURVE('',#168,#167,#81,.T.);
#205=EDGE_CURVE('',#169,#168,#82,.T.);
#206=EDGE_CURVE('',#170,#169,#23,.T.);
#207=EDGE_CURVE('',#170,#171,#83,.T.);
#208=EDGE_CURVE('',#172,#171,#84,.T.);
#209=EDGE_CURVE('',#172,#173,#85,.T.);
#210=EDGE_CURVE('',#174,#173,#24,.T.);
#211=EDGE_CURVE('',#174,#175,#86,.T.);
#212=EDGE_CURVE('',#157,#175,#25,.T.);
#213=EDGE_CURVE('',#176,#156,#26,.T.);
#214=EDGE_CURVE('',#175,#176,#87,.T.);
#215=EDGE_CURVE('',#177,#158,#27,.T.);
#216=EDGE_CURVE('',#176,#178,#88,.T.);
#217=EDGE_CURVE('',#179,#178,#28,.T.);
#218=EDGE_CURVE('',#179,#180,#89,.T.);
#219=EDGE_CURVE('',#180,#181,#90,.T.);
#220=EDGE_CURVE('',#181,#182,#91,.T.);
#221=EDGE_CURVE('',#183,#182,#29,.T.);
#222=EDGE_CURVE('',#183,#184,#92,.T.);
#223=EDGE_CURVE('',#184,#185,#93,.T.);
#224=EDGE_CURVE('',#185,#186,#94,.T.);
#225=EDGE_CURVE('',#187,#186,#30,.T.);
#226=EDGE_CURVE('',#187,#188,#95,.T.);
#227=EDGE_CURVE('',#188,#189,#96,.T.);
#228=EDGE_CURVE('',#189,#190,#97,.T.);
#229=EDGE_CURVE('',#191,#190,#31,.T.);
#230=EDGE_CURVE('',#191,#177,#98,.T.);
#231=EDGE_CURVE('',#177,#160,#99,.T.);
#232=EDGE_CURVE('',#189,#163,#100,.T.);
#233=EDGE_CURVE('',#164,#188,#101,.T.);
#234=EDGE_CURVE('',#186,#166,#102,.T.);
#235=EDGE_CURVE('',#167,#185,#103,.T.);
#236=EDGE_CURVE('',#168,#184,#104,.T.);
#237=EDGE_CURVE('',#169,#183,#105,.T.);
#238=EDGE_CURVE('',#181,#171,#106,.T.);
#239=EDGE_CURVE('',#172,#180,#107,.T.);
#240=EDGE_CURVE('',#178,#174,#108,.T.);
#241=EDGE_CURVE('',#161,#191,#109,.T.);
#242=EDGE_CURVE('',#190,#162,#110,.T.);
#243=EDGE_CURVE('',#165,#187,#111,.T.);
#244=EDGE_CURVE('',#182,#170,#112,.T.);
#245=EDGE_CURVE('',#173,#179,#113,.T.);
#246=ORIENTED_EDGE('',*,*,#192,.F.);
#247=ORIENTED_EDGE('',*,*,#193,.F.);
#248=ORIENTED_EDGE('',*,*,#194,.F.);
#249=ORIENTED_EDGE('',*,*,#195,.F.);
#250=ORIENTED_EDGE('',*,*,#195,.T.);
#251=ORIENTED_EDGE('',*,*,#196,.F.);
#252=ORIENTED_EDGE('',*,*,#197,.T.);
#253=ORIENTED_EDGE('',*,*,#198,.F.);
#254=ORIENTED_EDGE('',*,*,#199,.T.);
#255=ORIENTED_EDGE('',*,*,#200,.F.);
#256=ORIENTED_EDGE('',*,*,#201,.T.);
#257=ORIENTED_EDGE('',*,*,#202,.F.);
#258=ORIENTED_EDGE('',*,*,#203,.F.);
#259=ORIENTED_EDGE('',*,*,#204,.F.);
#260=ORIENTED_EDGE('',*,*,#205,.F.);
#261=ORIENTED_EDGE('',*,*,#206,.F.);
#262=ORIENTED_EDGE('',*,*,#207,.T.);
#263=ORIENTED_EDGE('',*,*,#208,.F.);
#264=ORIENTED_EDGE('',*,*,#209,.T.);
#265=ORIENTED_EDGE('',*,*,#210,.F.);
#266=ORIENTED_EDGE('',*,*,#211,.T.);
#267=ORIENTED_EDGE('',*,*,#212,.F.);
#268=ORIENTED_EDGE('',*,*,#213,.T.);
#269=ORIENTED_EDGE('',*,*,#192,.T.);
#270=ORIENTED_EDGE('',*,*,#212,.T.);
#271=ORIENTED_EDGE('',*,*,#214,.T.);
#272=ORIENTED_EDGE('',*,*,#215,.T.);
#273=ORIENTED_EDGE('',*,*,#193,.T.);
#274=ORIENTED_EDGE('',*,*,#213,.F.);
#275=ORIENTED_EDGE('',*,*,#216,.T.);
#276=ORIENTED_EDGE('',*,*,#217,.F.);
#277=ORIENTED_EDGE('',*,*,#218,.T.);
#278=ORIENTED_EDGE('',*,*,#219,.T.);
#279=ORIENTED_EDGE('',*,*,#220,.T.);
#280=ORIENTED_EDGE('',*,*,#221,.F.);
#281=ORIENTED_EDGE('',*,*,#222,.T.);
#282=ORIENTED_EDGE('',*,*,#223,.T.);
#283=ORIENTED_EDGE('',*,*,#224,.T.);
#284=ORIENTED_EDGE('',*,*,#225,.F.);
#285=ORIENTED_EDGE('',*,*,#226,.T.);
#286=ORIENTED_EDGE('',*,*,#227,.T.);
#287=ORIENTED_EDGE('',*,*,#228,.T.);
#288=ORIENTED_EDGE('',*,*,#229,.F.);
#289=ORIENTED_EDGE('',*,*,#230,.T.);
#290=ORIENTED_EDGE('',*,*,#215,.F.);
#291=ORIENTED_EDGE('',*,*,#231,.T.);
#292=ORIENTED_EDGE('',*,*,#196,.T.);
#293=ORIENTED_EDGE('',*,*,#194,.T.);
#294=ORIENTED_EDGE('',*,*,#232,.F.);
#295=ORIENTED_EDGE('',*,*,#227,.F.);
#296=ORIENTED_EDGE('',*,*,#233,.F.);
#297=ORIENTED_EDGE('',*,*,#200,.T.);
#298=ORIENTED_EDGE('',*,*,#234,.F.);
#299=ORIENTED_EDGE('',*,*,#224,.F.);
#300=ORIENTED_EDGE('',*,*,#235,.F.);
#301=ORIENTED_EDGE('',*,*,#203,.T.);
#302=ORIENTED_EDGE('',*,*,#235,.T.);
#303=ORIENTED_EDGE('',*,*,#223,.F.);
#304=ORIENTED_EDGE('',*,*,#236,.F.);
#305=ORIENTED_EDGE('',*,*,#204,.T.);
#306=ORIENTED_EDGE('',*,*,#236,.T.);
#307=ORIENTED_EDGE('',*,*,#222,.F.);
#308=ORIENTED_EDGE('',*,*,#237,.F.);
#309=ORIENTED_EDGE('',*,*,#205,.T.);
#310=ORIENTED_EDGE('',*,*,#238,.F.);
#311=ORIENTED_EDGE('',*,*,#219,.F.);
#312=ORIENTED_EDGE('',*,*,#239,.F.);
#313=ORIENTED_EDGE('',*,*,#208,.T.);
#314=ORIENTED_EDGE('',*,*,#240,.F.);
#315=ORIENTED_EDGE('',*,*,#216,.F.);
#316=ORIENTED_EDGE('',*,*,#214,.F.);
#317=ORIENTED_EDGE('',*,*,#211,.F.);
#318=ORIENTED_EDGE('',*,*,#231,.F.);
#319=ORIENTED_EDGE('',*,*,#230,.F.);
#320=ORIENTED_EDGE('',*,*,#241,.F.);
#321=ORIENTED_EDGE('',*,*,#197,.F.);
#322=ORIENTED_EDGE('',*,*,#242,.F.);
#323=ORIENTED_EDGE('',*,*,#228,.F.);
#324=ORIENTED_EDGE('',*,*,#232,.T.);
#325=ORIENTED_EDGE('',*,*,#199,.F.);
#326=ORIENTED_EDGE('',*,*,#233,.T.);
#327=ORIENTED_EDGE('',*,*,#226,.F.);
#328=ORIENTED_EDGE('',*,*,#243,.F.);
#329=ORIENTED_EDGE('',*,*,#201,.F.);
#330=ORIENTED_EDGE('',*,*,#225,.T.);
#331=ORIENTED_EDGE('',*,*,#234,.T.);
#332=ORIENTED_EDGE('',*,*,#202,.T.);
#333=ORIENTED_EDGE('',*,*,#243,.T.);
#334=ORIENTED_EDGE('',*,*,#221,.T.);
#335=ORIENTED_EDGE('',*,*,#244,.T.);
#336=ORIENTED_EDGE('',*,*,#206,.T.);
#337=ORIENTED_EDGE('',*,*,#237,.T.);
#338=ORIENTED_EDGE('',*,*,#244,.F.);
#339=ORIENTED_EDGE('',*,*,#220,.F.);
#340=ORIENTED_EDGE('',*,*,#238,.T.);
#341=ORIENTED_EDGE('',*,*,#207,.F.);
#342=ORIENTED_EDGE('',*,*,#239,.T.);
#343=ORIENTED_EDGE('',*,*,#218,.F.);
#344=ORIENTED_EDGE('',*,*,#245,.F.);
#345=ORIENTED_EDGE('',*,*,#209,.F.);
#346=ORIENTED_EDGE('',*,*,#217,.T.);
#347=ORIENTED_EDGE('',*,*,#240,.T.);
#348=ORIENTED_EDGE('',*,*,#210,.T.);
#349=ORIENTED_EDGE('',*,*,#245,.T.);
#350=ORIENTED_EDGE('',*,*,#229,.T.);
#351=ORIENTED_EDGE('',*,*,#242,.T.);
#352=ORIENTED_EDGE('',*,*,#198,.T.);
#353=ORIENTED_EDGE('',*,*,#241,.T.);
#354=PLANE('',#411);
#355=PLANE('',#412);
#356=PLANE('',#421);
#357=PLANE('',#428);
#358=PLANE('',#429);
#359=PLANE('',#430);
#360=PLANE('',#431);
#361=PLANE('',#432);
#362=PLANE('',#433);
#363=PLANE('',#434);
#364=PLANE('',#435);
#365=PLANE('',#436);
#366=PLANE('',#439);
#367=PLANE('',#440);
#368=STYLED_ITEM('',(#684),#389);
#369=STYLED_ITEM('',(#685),#390);
#370=STYLED_ITEM('',(#684),#391);
#371=STYLED_ITEM('',(#685),#392);
#372=STYLED_ITEM('',(#684),#393);
#373=STYLED_ITEM('',(#685),#394);
#374=STYLED_ITEM('',(#685),#395);
#375=STYLED_ITEM('',(#685),#396);
#376=STYLED_ITEM('',(#685),#397);
#377=STYLED_ITEM('',(#685),#398);
#378=STYLED_ITEM('',(#685),#399);
#379=STYLED_ITEM('',(#685),#400);
#380=STYLED_ITEM('',(#685),#401);
#381=STYLED_ITEM('',(#685),#402);
#382=STYLED_ITEM('',(#685),#403);
#383=STYLED_ITEM('',(#685),#404);
#384=STYLED_ITEM('',(#685),#405);
#385=STYLED_ITEM('',(#685),#406);
#386=STYLED_ITEM('',(#685),#407);
#387=STYLED_ITEM('',(#685),#408);
#388=STYLED_ITEM('',(#683),#13);
#389=ADVANCED_FACE('',(#32),#354,.F.);
#390=ADVANCED_FACE('',(#33),#355,.F.);
#391=ADVANCED_FACE('',(#34),#14,.T.);
#392=ADVANCED_FACE('',(#35),#356,.T.);
#393=ADVANCED_FACE('',(#36),#15,.T.);
#394=ADVANCED_FACE('',(#37),#357,.F.);
#395=ADVANCED_FACE('',(#38),#358,.F.);
#396=ADVANCED_FACE('',(#39),#359,.F.);
#397=ADVANCED_FACE('',(#40),#360,.F.);
#398=ADVANCED_FACE('',(#41),#361,.F.);
#399=ADVANCED_FACE('',(#42),#362,.F.);
#400=ADVANCED_FACE('',(#43),#363,.F.);
#401=ADVANCED_FACE('',(#44),#364,.F.);
#402=ADVANCED_FACE('',(#45),#365,.F.);
#403=ADVANCED_FACE('',(#46),#16,.T.);
#404=ADVANCED_FACE('',(#47),#17,.T.);
#405=ADVANCED_FACE('',(#48),#366,.F.);
#406=ADVANCED_FACE('',(#49),#367,.F.);
#407=ADVANCED_FACE('',(#50),#18,.T.);
#408=ADVANCED_FACE('',(#51),#19,.T.);
#409=CLOSED_SHELL('',(#389,#390,#391,#392,#393,#394,#395,#396,#397,#398,
#399,#400,#401,#402,#403,#404,#405,#406,#407,#408));
#410=AXIS2_PLACEMENT_3D('placement',#551,#443,#444);
#411=AXIS2_PLACEMENT_3D('',#552,#445,#446);
#412=AXIS2_PLACEMENT_3D('',#561,#451,#452);
#413=AXIS2_PLACEMENT_3D('',#563,#453,#454);
#414=AXIS2_PLACEMENT_3D('',#567,#456,#457);
#415=AXIS2_PLACEMENT_3D('',#575,#461,#462);
#416=AXIS2_PLACEMENT_3D('',#583,#466,#467);
#417=AXIS2_PLACEMENT_3D('',#591,#471,#472);
#418=AXIS2_PLACEMENT_3D('',#594,#474,#475);
#419=AXIS2_PLACEMENT_3D('',#595,#476,#477);
#420=AXIS2_PLACEMENT_3D('',#597,#478,#479);
#421=AXIS2_PLACEMENT_3D('',#599,#481,#482);
#422=AXIS2_PLACEMENT_3D('',#601,#483,#484);
#423=AXIS2_PLACEMENT_3D('',#605,#486,#487);
#424=AXIS2_PLACEMENT_3D('',#613,#491,#492);
#425=AXIS2_PLACEMENT_3D('',#621,#496,#497);
#426=AXIS2_PLACEMENT_3D('',#629,#501,#502);
#427=AXIS2_PLACEMENT_3D('',#631,#504,#505);
#428=AXIS2_PLACEMENT_3D('',#633,#507,#508);
#429=AXIS2_PLACEMENT_3D('',#636,#511,#512);
#430=AXIS2_PLACEMENT_3D('',#639,#515,#516);
#431=AXIS2_PLACEMENT_3D('',#641,#518,#519);
#432=AXIS2_PLACEMENT_3D('',#643,#521,#522);
#433=AXIS2_PLACEMENT_3D('',#646,#525,#526);
#434=AXIS2_PLACEMENT_3D('',#648,#528,#529);
#435=AXIS2_PLACEMENT_3D('',#650,#531,#532);
#436=AXIS2_PLACEMENT_3D('',#652,#534,#535);
#437=AXIS2_PLACEMENT_3D('',#654,#537,#538);
#438=AXIS2_PLACEMENT_3D('',#655,#539,#540);
#439=AXIS2_PLACEMENT_3D('',#657,#542,#543);
#440=AXIS2_PLACEMENT_3D('',#658,#544,#545);
#441=AXIS2_PLACEMENT_3D('',#660,#547,#548);
#442=AXIS2_PLACEMENT_3D('',#661,#549,#550);
#443=DIRECTION('axis',(0.,0.,1.));
#444=DIRECTION('refdir',(1.,0.,0.));
#445=DIRECTION('center_axis',(0.,-1.,0.));
#446=DIRECTION('ref_axis',(0.,0.,-1.));
#447=DIRECTION('',(0.,0.,-1.));
#448=DIRECTION('',(-1.,0.,0.));
#449=DIRECTION('',(0.,0.,1.));
#450=DIRECTION('',(1.,0.,0.));
#451=DIRECTION('center_axis',(0.,0.,1.));
#452=DIRECTION('ref_axis',(1.,0.,0.));
#453=DIRECTION('center_axis',(0.,0.,1.));
#454=DIRECTION('ref_axis',(-1.,9.48676900924818E-16,0.));
#455=DIRECTION('',(2.89120579329468E-15,-1.,0.));
#456=DIRECTION('center_axis',(0.,0.,1.));
#457=DIRECTION('ref_axis',(-1.,0.,0.));
#458=DIRECTION('',(-1.,0.,0.));
#459=DIRECTION('',(-0.0338788456657572,0.999425947139835,0.));
#460=DIRECTION('',(0.730656826025398,-0.682744903007332,0.));
#461=DIRECTION('center_axis',(0.,0.,1.));
#462=DIRECTION('ref_axis',(-1.,-1.73472347597681E-15,0.));
#463=DIRECTION('',(0.0338788456657575,-0.999425947139835,0.));
#464=DIRECTION('',(1.,0.,0.));
#465=DIRECTION('',(0.0338788456657571,0.999425947139835,0.));
#466=DIRECTION('center_axis',(0.,0.,1.));
#467=DIRECTION('ref_axis',(-1.,1.04083408558608E-15,0.));
#468=DIRECTION('',(0.730656826025397,0.682744903007333,0.));
#469=DIRECTION('',(-0.0338788456657568,-0.999425947139835,0.));
#470=DIRECTION('',(-1.,0.,0.));
#471=DIRECTION('center_axis',(0.,0.,1.));
#472=DIRECTION('ref_axis',(-1.,0.,0.));
#473=DIRECTION('',(2.89120579329468E-15,1.,0.));
#474=DIRECTION('center_axis',(0.,0.,1.));
#475=DIRECTION('ref_axis',(-1.,9.48676900924818E-16,0.));
#476=DIRECTION('center_axis',(0.,0.,1.));
#477=DIRECTION('ref_axis',(-1.,0.,0.));
#478=DIRECTION('center_axis',(0.,0.,-1.));
#479=DIRECTION('ref_axis',(-1.,0.,0.));
#480=DIRECTION('',(0.,0.,1.));
#481=DIRECTION('center_axis',(0.,0.,1.));
#482=DIRECTION('ref_axis',(1.,0.,0.));
#483=DIRECTION('center_axis',(0.,0.,1.));
#484=DIRECTION('ref_axis',(-1.,9.48676900924818E-16,0.));
#485=DIRECTION('',(0.,-1.,0.));
#486=DIRECTION('center_axis',(0.,0.,-1.));
#487=DIRECTION('ref_axis',(-1.,0.,0.));
#488=DIRECTION('',(1.,0.,0.));
#489=DIRECTION('',(-0.0338788456657568,-0.999425947139835,0.));
#490=DIRECTION('',(-0.730656826025397,-0.682744903007333,0.));
#491=DIRECTION('center_axis',(0.,0.,-1.));
#492=DIRECTION('ref_axis',(-1.,0.,0.));
#493=DIRECTION('',(0.0338788456657571,0.999425947139835,0.));
#494=DIRECTION('',(1.,0.,0.));
#495=DIRECTION('',(0.0338788456657575,-0.999425947139835,0.));
#496=DIRECTION('center_axis',(0.,0.,-1.));
#497=DIRECTION('ref_axis',(-1.,0.,0.));
#498=DIRECTION('',(-0.730656826025398,0.682744903007332,0.));
#499=DIRECTION('',(-0.0338788456657572,0.999425947139835,0.));
#500=DIRECTION('',(1.,0.,0.));
#501=DIRECTION('center_axis',(0.,0.,-1.));
#502=DIRECTION('ref_axis',(-1.,0.,0.));
#503=DIRECTION('',(-2.89120579329468E-15,1.,0.));
#504=DIRECTION('center_axis',(0.,0.,1.));
#505=DIRECTION('ref_axis',(-1.,0.,0.));
#506=DIRECTION('',(0.,0.,-1.));
#507=DIRECTION('center_axis',(-0.999425947139835,-0.0338788456657572,0.));
#508=DIRECTION('ref_axis',(-0.0338788456657575,0.999425947139835,0.));
#509=DIRECTION('',(0.,0.,-1.));
#510=DIRECTION('',(0.,0.,1.));
#511=DIRECTION('center_axis',(0.999425947139835,0.0338788456657574,0.));
#512=DIRECTION('ref_axis',(0.,0.,-1.));
#513=DIRECTION('',(0.,0.,-1.));
#514=DIRECTION('',(0.,0.,1.));
#515=DIRECTION('center_axis',(-4.04093722587382E-80,1.,1.74820694649359E-32));
#516=DIRECTION('ref_axis',(1.,0.,0.));
#517=DIRECTION('',(0.,-1.74820694649359E-32,1.));
#518=DIRECTION('center_axis',(-0.999425947139835,0.0338788456657571,0.));
#519=DIRECTION('ref_axis',(0.,0.,1.));
#520=DIRECTION('',(0.,0.,1.));
#521=DIRECTION('center_axis',(0.999425947139835,-0.0338788456657568,0.));
#522=DIRECTION('ref_axis',(0.,0.,-1.));
#523=DIRECTION('',(0.,0.,-1.));
#524=DIRECTION('',(0.,0.,1.));
#525=DIRECTION('center_axis',(1.,-2.89120579329468E-15,0.));
#526=DIRECTION('ref_axis',(0.,0.,1.));
#527=DIRECTION('',(0.,0.,-1.));
#528=DIRECTION('center_axis',(-1.,-2.89120579329468E-15,0.));
#529=DIRECTION('ref_axis',(-2.66453525910038E-15,1.,0.));
#530=DIRECTION('',(0.,0.,1.));
#531=DIRECTION('center_axis',(0.,1.,0.));
#532=DIRECTION('ref_axis',(1.,0.,0.));
#533=DIRECTION('',(0.,0.,-1.));
#534=DIRECTION('center_axis',(-0.682744903007332,-0.730656826025398,0.));
#535=DIRECTION('ref_axis',(-0.730656826025399,0.682744903007331,0.));
#536=DIRECTION('',(0.,0.,1.));
#537=DIRECTION('center_axis',(0.,0.,1.));
#538=DIRECTION('ref_axis',(-1.,0.,0.));
#539=DIRECTION('center_axis',(0.,0.,1.));
#540=DIRECTION('ref_axis',(-1.,0.,0.));
#541=DIRECTION('',(0.,0.,-1.));
#542=DIRECTION('center_axis',(0.682744903007333,-0.730656826025397,0.));
#543=DIRECTION('ref_axis',(0.,0.,-1.));
#544=DIRECTION('center_axis',(0.,1.,0.));
#545=DIRECTION('ref_axis',(1.,0.,0.));
#546=DIRECTION('',(0.,0.,1.));
#547=DIRECTION('center_axis',(0.,0.,1.));
#548=DIRECTION('ref_axis',(-1.,0.,0.));
#549=DIRECTION('center_axis',(0.,0.,1.));
#550=DIRECTION('ref_axis',(-1.,0.,0.));
#551=CARTESIAN_POINT('',(0.,0.,0.));
#552=CARTESIAN_POINT('Origin',(5.6,-7.10271685216979E-16,1000.));
#553=CARTESIAN_POINT('',(-5.6,-7.07501548666278E-16,1000.));
#554=CARTESIAN_POINT('',(-5.6,-7.07501548666278E-16,0.));
#555=CARTESIAN_POINT('',(-5.6,-7.10271685216979E-16,1000.));
#556=CARTESIAN_POINT('',(5.6,-7.07501548666278E-16,1000.));
#557=CARTESIAN_POINT('',(5.6,-7.10271685216979E-16,1000.));
#558=CARTESIAN_POINT('',(5.6,-7.07501548666278E-16,0.));
#559=CARTESIAN_POINT('',(5.6,-7.10271685216979E-16,1000.));
#560=CARTESIAN_POINT('',(5.6,-7.10271685216979E-16,0.));
#561=CARTESIAN_POINT('Origin',(-5.6,-0.200000000000001,0.));
#562=CARTESIAN_POINT('',(5.8,-0.200000000000001,0.));
#563=CARTESIAN_POINT('Origin',(5.6,-0.200000000000001,0.));
#564=CARTESIAN_POINT('',(5.8,-1.4,0.));
#565=CARTESIAN_POINT('',(5.8,-0.200000000000002,0.));
#566=CARTESIAN_POINT('',(5.6,-1.6,0.));
#567=CARTESIAN_POINT('Origin',(5.6,-1.4,0.));
#568=CARTESIAN_POINT('',(5.1,-1.6,0.));
#569=CARTESIAN_POINT('',(5.6,-1.6,0.));
#570=CARTESIAN_POINT('',(5.25254237288136,-6.1,-2.22044604925031E-13));
#571=CARTESIAN_POINT('',(5.25254237288136,-6.1,0.));
#572=CARTESIAN_POINT('',(5.5,-6.33123089747152,-2.22044604925031E-13));
#573=CARTESIAN_POINT('',(5.25254237288136,-6.1,-4.44089209850063E-13));
#574=CARTESIAN_POINT('',(4.3,-7.5,-5.55111512312578E-14));
#575=CARTESIAN_POINT('Origin',(3.25649573809356,-5.22819480250108,0.));
#576=CARTESIAN_POINT('',(4.1,-1.6,-1.48029736616688E-13));
#577=CARTESIAN_POINT('',(4.1,-1.6,0.));
#578=CARTESIAN_POINT('',(-4.1,-1.6,0.));
#579=CARTESIAN_POINT('',(-5.6,-1.6,0.));
#580=CARTESIAN_POINT('',(-4.3,-7.5,-5.55111512312578E-14));
#581=CARTESIAN_POINT('',(-4.3,-7.5,0.));
#582=CARTESIAN_POINT('',(-5.5,-6.33123089747152,0.));
#583=CARTESIAN_POINT('Origin',(-3.25649573809356,-5.22819480250109,0.));
#584=CARTESIAN_POINT('',(-5.25254237288136,-6.1,0.));
#585=CARTESIAN_POINT('',(-5.25254237288135,-6.1,0.));
#586=CARTESIAN_POINT('',(-5.1,-1.6,0.));
#587=CARTESIAN_POINT('',(-5.1,-1.6,0.));
#588=CARTESIAN_POINT('',(-5.6,-1.6,0.));
#589=CARTESIAN_POINT('',(-5.6,-1.6,0.));
#590=CARTESIAN_POINT('',(-5.8,-1.4,0.));
#591=CARTESIAN_POINT('Origin',(-5.6,-1.4,0.));
#592=CARTESIAN_POINT('',(-5.8,-0.2,0.));
#593=CARTESIAN_POINT('',(-5.8,-0.200000000000002,0.));
#594=CARTESIAN_POINT('Origin',(-5.6,-0.200000000000001,0.));
#595=CARTESIAN_POINT('Origin',(-5.6,-0.200000000000001,1000.));
#596=CARTESIAN_POINT('',(-5.8,-0.200000000000001,1000.));
#597=CARTESIAN_POINT('Origin',(-5.6,-0.200000000000001,1000.));
#598=CARTESIAN_POINT('',(-5.8,-0.200000000000001,1000.));
#599=CARTESIAN_POINT('Origin',(-5.6,-0.200000000000001,1000.));
#600=CARTESIAN_POINT('',(5.8,-0.200000000000001,1000.));
#601=CARTESIAN_POINT('Origin',(5.6,-0.200000000000001,1000.));
#602=CARTESIAN_POINT('',(-5.8,-1.4,1000.));
#603=CARTESIAN_POINT('',(-5.8,-0.200000000000001,1000.));
#604=CARTESIAN_POINT('',(-5.6,-1.6,1000.));
#605=CARTESIAN_POINT('Origin',(-5.6,-1.4,1000.));
#606=CARTESIAN_POINT('',(-5.1,-1.6,1000.));
#607=CARTESIAN_POINT('',(-5.6,-1.6,1000.));
#608=CARTESIAN_POINT('',(-5.25254237288136,-6.1,1000.));
#609=CARTESIAN_POINT('',(-5.1,-1.6,1000.));
#610=CARTESIAN_POINT('',(-5.5,-6.33123089747152,1000.));
#611=CARTESIAN_POINT('',(-5.25254237288135,-6.1,1000.));
#612=CARTESIAN_POINT('',(-4.3,-7.5,1000.));
#613=CARTESIAN_POINT('Origin',(-3.25649573809356,-5.22819480250109,1000.));
#614=CARTESIAN_POINT('',(-4.1,-1.6,1000.));
#615=CARTESIAN_POINT('',(-4.3,-7.5,1000.));
#616=CARTESIAN_POINT('',(4.1,-1.6,1000.));
#617=CARTESIAN_POINT('',(-5.6,-1.6,1000.));
#618=CARTESIAN_POINT('',(4.3,-7.5,1000.));
#619=CARTESIAN_POINT('',(4.1,-1.6,1000.));
#620=CARTESIAN_POINT('',(5.5,-6.33123089747152,1000.));
#621=CARTESIAN_POINT('Origin',(3.25649573809356,-5.22819480250108,1000.));
#622=CARTESIAN_POINT('',(5.25254237288136,-6.1,1000.));
#623=CARTESIAN_POINT('',(5.25254237288136,-6.1,1000.));
#624=CARTESIAN_POINT('',(5.1,-1.6,1000.));
#625=CARTESIAN_POINT('',(5.25254237288136,-6.1,1000.));
#626=CARTESIAN_POINT('',(5.6,-1.6,1000.));
#627=CARTESIAN_POINT('',(5.6,-1.6,1000.));
#628=CARTESIAN_POINT('',(5.8,-1.4,1000.));
#629=CARTESIAN_POINT('Origin',(5.6,-1.4,1000.));
#630=CARTESIAN_POINT('',(5.8,-0.200000000000002,1000.));
#631=CARTESIAN_POINT('Origin',(5.6,-0.200000000000001,1000.));
#632=CARTESIAN_POINT('',(5.8,-0.200000000000002,1000.));
#633=CARTESIAN_POINT('Origin',(5.1,-1.6,1000.));
#634=CARTESIAN_POINT('',(5.1,-1.6,1000.));
#635=CARTESIAN_POINT('',(5.25254237288136,-6.1,1000.));
#636=CARTESIAN_POINT('Origin',(4.1,-1.6,1000.));
#637=CARTESIAN_POINT('',(4.3,-7.5,1000.));
#638=CARTESIAN_POINT('',(4.1,-1.6,1000.));
#639=CARTESIAN_POINT('Origin',(-4.1,-1.6,1000.));
#640=CARTESIAN_POINT('',(-4.1,-1.6,1000.));
#641=CARTESIAN_POINT('Origin',(-4.1,-1.6,1000.));
#642=CARTESIAN_POINT('',(-4.3,-7.5,1000.));
#643=CARTESIAN_POINT('Origin',(-5.1,-1.6,1000.));
#644=CARTESIAN_POINT('',(-5.25254237288135,-6.1,1000.));
#645=CARTESIAN_POINT('',(-5.1,-1.6,1000.));
#646=CARTESIAN_POINT('Origin',(-5.8,-0.200000000000002,1000.));
#647=CARTESIAN_POINT('',(-5.8,-1.4,1000.));
#648=CARTESIAN_POINT('Origin',(5.8,-0.200000000000002,1000.));
#649=CARTESIAN_POINT('',(5.8,-1.4,1000.));
#650=CARTESIAN_POINT('Origin',(5.6,-1.6,1000.));
#651=CARTESIAN_POINT('',(5.6,-1.6,1000.));
#652=CARTESIAN_POINT('Origin',(5.25254237288136,-6.1,1000.));
#653=CARTESIAN_POINT('',(5.5,-6.33123089747152,1000.));
#654=CARTESIAN_POINT('Origin',(3.25649573809356,-5.22819480250108,1000.));
#655=CARTESIAN_POINT('Origin',(-3.25649573809356,-5.22819480250109,1000.));
#656=CARTESIAN_POINT('',(-5.5,-6.33123089747152,1000.));
#657=CARTESIAN_POINT('Origin',(-5.25254237288135,-6.1,1000.));
#658=CARTESIAN_POINT('Origin',(-5.6,-1.6,1000.));
#659=CARTESIAN_POINT('',(-5.6,-1.6,1000.));
#660=CARTESIAN_POINT('Origin',(-5.6,-1.4,1000.));
#661=CARTESIAN_POINT('Origin',(5.6,-1.4,1000.));
#662=UNCERTAINTY_MEASURE_WITH_UNIT(LENGTH_MEASURE(0.01),#666,
'DISTANCE_ACCURACY_VALUE',
'Maximum model space distance between geometric entities at asserted c
onnectivities');
#663=UNCERTAINTY_MEASURE_WITH_UNIT(LENGTH_MEASURE(1.E-6),#666,
'DISTANCE_ACCURACY_VALUE',
'Maximum model space distance between geometric entities at asserted c
onnectivities');
#664=(
GEOMETRIC_REPRESENTATION_CONTEXT(3)
GLOBAL_UNCERTAINTY_ASSIGNED_CONTEXT((#662))
GLOBAL_UNIT_ASSIGNED_CONTEXT((#666,#669,#667))
REPRESENTATION_CONTEXT('','3D')
);
#665=(
GEOMETRIC_REPRESENTATION_CONTEXT(3)
GLOBAL_UNCERTAINTY_ASSIGNED_CONTEXT((#663))
GLOBAL_UNIT_ASSIGNED_CONTEXT((#666,#669,#667))
REPRESENTATION_CONTEXT('','3D')
);
#666=(
LENGTH_UNIT()
NAMED_UNIT(*)
SI_UNIT(.MILLI.,.METRE.)
);
#667=(
NAMED_UNIT(*)
SI_UNIT($,.STERADIAN.)
SOLID_ANGLE_UNIT()
);
#668=DIMENSIONAL_EXPONENTS(0.,0.,0.,0.,0.,0.,0.);
#669=(
CONVERSION_BASED_UNIT('degree',#671)
NAMED_UNIT(#668)
PLANE_ANGLE_UNIT()
);
#670=(
NAMED_UNIT(*)
PLANE_ANGLE_UNIT()
SI_UNIT($,.RADIAN.)
);
#671=PLANE_ANGLE_MEASURE_WITH_UNIT(PLANE_ANGLE_MEASURE(0.01745329252),#670);
#672=SHAPE_DEFINITION_REPRESENTATION(#673,#674);
#673=PRODUCT_DEFINITION_SHAPE('',$,#676);
#674=SHAPE_REPRESENTATION('',(#410),#664);
#675=PRODUCT_DEFINITION_CONTEXT('part definition',#680,'design');
#676=PRODUCT_DEFINITION('fath_092041as01','fath_092041as01',#677,#675);
#677=PRODUCT_DEFINITION_FORMATION('',$,#682);
#678=PRODUCT_RELATED_PRODUCT_CATEGORY('fath_092041as01',
'fath_092041as01',(#682));
#679=APPLICATION_PROTOCOL_DEFINITION('international standard',
'automotive_design',2009,#680);
#680=APPLICATION_CONTEXT(
'Core Data for Automotive Mechanical Design Process');
#681=PRODUCT_CONTEXT('part definition',#680,'mechanical');
#682=PRODUCT('fath_092041as01','fath_092041as01',$,(#681));
#683=PRESENTATION_STYLE_ASSIGNMENT((#686));
#684=PRESENTATION_STYLE_ASSIGNMENT((#687));
#685=PRESENTATION_STYLE_ASSIGNMENT((#688));
#686=SURFACE_STYLE_USAGE(.BOTH.,#689);
#687=SURFACE_STYLE_USAGE(.BOTH.,#690);
#688=SURFACE_STYLE_USAGE(.BOTH.,#691);
#689=SURFACE_SIDE_STYLE('',(#692));
#690=SURFACE_SIDE_STYLE('',(#693));
#691=SURFACE_SIDE_STYLE('',(#694));
#692=SURFACE_STYLE_FILL_AREA(#695);
#693=SURFACE_STYLE_FILL_AREA(#696);
#694=SURFACE_STYLE_FILL_AREA(#697);
#695=FILL_AREA_STYLE('',(#698));
#696=FILL_AREA_STYLE('',(#699));
#697=FILL_AREA_STYLE('',(#700));
#698=FILL_AREA_STYLE_COLOUR('',#701);
#699=FILL_AREA_STYLE_COLOUR('',#702);
#700=FILL_AREA_STYLE_COLOUR('',#703);
#701=COLOUR_RGB('',1.,0.890196078431373,0.709803921568627);
#702=COLOUR_RGB('',1.,0.996078431372549,0.964705882352941);
#703=COLOUR_RGB('',0.,0.,0.);
ENDSEC;
END-ISO-10303-21;
