ISO-10303-21;
HEADER;
/* Generated by software containing ST-Developer
 * from STEP Tools, Inc. (www.steptools.com) 
 */

FILE_DESCRIPTION(
/* description */ ('KriTec Dichtprofil 10 Raster 45, 4-6mm, schwarz'),
/* implementation_level */ '2;1');

FILE_NAME(
/* name */ 
'S:\\Bilder_neu\\80007_KriTec_Dichtprofil_10_Raster_45_4-6mm_schwarz\\
Inventordateien\\80007_KriTec_Dichtprofil_10_Raster_45_4-6mm_schwarz.s
tp',
/* time_stamp */ '2021-03-19T13:29:14+01:00',
/* author */ ('jendrek'),
/* organization */ (''),
/* preprocessor_version */ 'ST-DEVELOPER v17',
/* originating_system */ 'Autodesk Inventor 2018',
/* authorisation */ '');

FILE_SCHEMA (('AUTOMOTIVE_DESIGN { 1 0 10303 214 3 1 1 }'));
ENDSEC;

DATA;
#10=MECHANICAL_DESIGN_GEOMETRIC_PRESENTATION_REPRESENTATION('',(#13),#618);
#11=SHAPE_REPRESENTATION_RELATIONSHIP('SRR','None',#625,#12);
#12=ADVANCED_BREP_SHAPE_REPRESENTATION('',(#14),#617);
#13=STYLED_ITEM('',(#634),#14);
#14=MANIFOLD_SOLID_BREP('Volumenk\X\F6rper4',#380);
#15=FACE_OUTER_BOUND('',#34,.T.);
#16=FACE_OUTER_BOUND('',#35,.T.);
#17=FACE_OUTER_BOUND('',#36,.T.);
#18=FACE_OUTER_BOUND('',#37,.T.);
#19=FACE_OUTER_BOUND('',#38,.T.);
#20=FACE_OUTER_BOUND('',#39,.T.);
#21=FACE_OUTER_BOUND('',#40,.T.);
#22=FACE_OUTER_BOUND('',#41,.T.);
#23=FACE_OUTER_BOUND('',#42,.T.);
#24=FACE_OUTER_BOUND('',#43,.T.);
#25=FACE_OUTER_BOUND('',#44,.T.);
#26=FACE_OUTER_BOUND('',#45,.T.);
#27=FACE_OUTER_BOUND('',#46,.T.);
#28=FACE_OUTER_BOUND('',#47,.T.);
#29=FACE_OUTER_BOUND('',#48,.T.);
#30=FACE_OUTER_BOUND('',#49,.T.);
#31=FACE_OUTER_BOUND('',#50,.T.);
#32=FACE_OUTER_BOUND('',#51,.T.);
#33=FACE_OUTER_BOUND('',#52,.T.);
#34=EDGE_LOOP('',(#240,#241,#242,#243));
#35=EDGE_LOOP('',(#244,#245,#246,#247));
#36=EDGE_LOOP('',(#248,#249,#250,#251));
#37=EDGE_LOOP('',(#252,#253,#254,#255));
#38=EDGE_LOOP('',(#256,#257,#258,#259));
#39=EDGE_LOOP('',(#260,#261,#262,#263));
#40=EDGE_LOOP('',(#264,#265,#266,#267));
#41=EDGE_LOOP('',(#268,#269,#270,#271));
#42=EDGE_LOOP('',(#272,#273,#274,#275));
#43=EDGE_LOOP('',(#276,#277,#278,#279));
#44=EDGE_LOOP('',(#280,#281,#282,#283));
#45=EDGE_LOOP('',(#284,#285,#286,#287));
#46=EDGE_LOOP('',(#288,#289,#290,#291));
#47=EDGE_LOOP('',(#292,#293,#294,#295));
#48=EDGE_LOOP('',(#296,#297,#298,#299));
#49=EDGE_LOOP('',(#300,#301,#302,#303));
#50=EDGE_LOOP('',(#304,#305,#306,#307));
#51=EDGE_LOOP('',(#308,#309,#310,#311,#312,#313,#314,#315,#316,#317,#318,
#319,#320,#321,#322,#323,#324));
#52=EDGE_LOOP('',(#325,#326,#327,#328,#329,#330,#331,#332,#333,#334,#335,
#336,#337,#338,#339,#340,#341));
#53=LINE('',#514,#104);
#54=LINE('',#516,#105);
#55=LINE('',#518,#106);
#56=LINE('',#519,#107);
#57=LINE('',#522,#108);
#58=LINE('',#524,#109);
#59=LINE('',#525,#110);
#60=LINE('',#528,#111);
#61=LINE('',#530,#112);
#62=LINE('',#531,#113);
#63=LINE('',#534,#114);
#64=LINE('',#536,#115);
#65=LINE('',#537,#116);
#66=LINE('',#540,#117);
#67=LINE('',#542,#118);
#68=LINE('',#543,#119);
#69=LINE('',#546,#120);
#70=LINE('',#548,#121);
#71=LINE('',#549,#122);
#72=LINE('',#552,#123);
#73=LINE('',#554,#124);
#74=LINE('',#555,#125);
#75=LINE('',#558,#126);
#76=LINE('',#560,#127);
#77=LINE('',#561,#128);
#78=LINE('',#564,#129);
#79=LINE('',#566,#130);
#80=LINE('',#567,#131);
#81=LINE('',#570,#132);
#82=LINE('',#572,#133);
#83=LINE('',#573,#134);
#84=LINE('',#576,#135);
#85=LINE('',#578,#136);
#86=LINE('',#579,#137);
#87=LINE('',#582,#138);
#88=LINE('',#584,#139);
#89=LINE('',#585,#140);
#90=LINE('',#588,#141);
#91=LINE('',#590,#142);
#92=LINE('',#591,#143);
#93=LINE('',#594,#144);
#94=LINE('',#596,#145);
#95=LINE('',#597,#146);
#96=LINE('',#600,#147);
#97=LINE('',#602,#148);
#98=LINE('',#603,#149);
#99=LINE('',#606,#150);
#100=LINE('',#608,#151);
#101=LINE('',#609,#152);
#102=LINE('',#611,#153);
#103=LINE('',#612,#154);
#104=VECTOR('',#423,10.);
#105=VECTOR('',#424,10.);
#106=VECTOR('',#425,10.);
#107=VECTOR('',#426,10.);
#108=VECTOR('',#429,10.);
#109=VECTOR('',#430,10.);
#110=VECTOR('',#431,10.);
#111=VECTOR('',#434,10.);
#112=VECTOR('',#435,10.);
#113=VECTOR('',#436,10.);
#114=VECTOR('',#439,10.);
#115=VECTOR('',#440,10.);
#116=VECTOR('',#441,10.);
#117=VECTOR('',#444,10.);
#118=VECTOR('',#445,10.);
#119=VECTOR('',#446,10.);
#120=VECTOR('',#449,10.);
#121=VECTOR('',#450,10.);
#122=VECTOR('',#451,10.);
#123=VECTOR('',#454,10.);
#124=VECTOR('',#455,10.);
#125=VECTOR('',#456,10.);
#126=VECTOR('',#459,10.);
#127=VECTOR('',#460,10.);
#128=VECTOR('',#461,10.);
#129=VECTOR('',#464,10.);
#130=VECTOR('',#465,10.);
#131=VECTOR('',#466,10.);
#132=VECTOR('',#469,10.);
#133=VECTOR('',#470,10.);
#134=VECTOR('',#471,10.);
#135=VECTOR('',#474,10.);
#136=VECTOR('',#475,10.);
#137=VECTOR('',#476,10.);
#138=VECTOR('',#479,10.);
#139=VECTOR('',#480,10.);
#140=VECTOR('',#481,10.);
#141=VECTOR('',#484,10.);
#142=VECTOR('',#485,10.);
#143=VECTOR('',#486,10.);
#144=VECTOR('',#489,10.);
#145=VECTOR('',#490,10.);
#146=VECTOR('',#491,10.);
#147=VECTOR('',#494,10.);
#148=VECTOR('',#495,10.);
#149=VECTOR('',#496,10.);
#150=VECTOR('',#499,10.);
#151=VECTOR('',#500,10.);
#152=VECTOR('',#501,10.);
#153=VECTOR('',#504,10.);
#154=VECTOR('',#505,10.);
#155=VERTEX_POINT('',#512);
#156=VERTEX_POINT('',#513);
#157=VERTEX_POINT('',#515);
#158=VERTEX_POINT('',#517);
#159=VERTEX_POINT('',#521);
#160=VERTEX_POINT('',#523);
#161=VERTEX_POINT('',#527);
#162=VERTEX_POINT('',#529);
#163=VERTEX_POINT('',#533);
#164=VERTEX_POINT('',#535);
#165=VERTEX_POINT('',#539);
#166=VERTEX_POINT('',#541);
#167=VERTEX_POINT('',#545);
#168=VERTEX_POINT('',#547);
#169=VERTEX_POINT('',#551);
#170=VERTEX_POINT('',#553);
#171=VERTEX_POINT('',#557);
#172=VERTEX_POINT('',#559);
#173=VERTEX_POINT('',#563);
#174=VERTEX_POINT('',#565);
#175=VERTEX_POINT('',#569);
#176=VERTEX_POINT('',#571);
#177=VERTEX_POINT('',#575);
#178=VERTEX_POINT('',#577);
#179=VERTEX_POINT('',#581);
#180=VERTEX_POINT('',#583);
#181=VERTEX_POINT('',#587);
#182=VERTEX_POINT('',#589);
#183=VERTEX_POINT('',#593);
#184=VERTEX_POINT('',#595);
#185=VERTEX_POINT('',#599);
#186=VERTEX_POINT('',#601);
#187=VERTEX_POINT('',#605);
#188=VERTEX_POINT('',#607);
#189=EDGE_CURVE('',#155,#156,#53,.T.);
#190=EDGE_CURVE('',#156,#157,#54,.T.);
#191=EDGE_CURVE('',#158,#157,#55,.T.);
#192=EDGE_CURVE('',#155,#158,#56,.T.);
#193=EDGE_CURVE('',#159,#155,#57,.T.);
#194=EDGE_CURVE('',#160,#158,#58,.T.);
#195=EDGE_CURVE('',#159,#160,#59,.T.);
#196=EDGE_CURVE('',#161,#159,#60,.T.);
#197=EDGE_CURVE('',#162,#160,#61,.T.);
#198=EDGE_CURVE('',#161,#162,#62,.T.);
#199=EDGE_CURVE('',#163,#161,#63,.T.);
#200=EDGE_CURVE('',#164,#162,#64,.T.);
#201=EDGE_CURVE('',#163,#164,#65,.T.);
#202=EDGE_CURVE('',#165,#163,#66,.T.);
#203=EDGE_CURVE('',#166,#164,#67,.T.);
#204=EDGE_CURVE('',#165,#166,#68,.T.);
#205=EDGE_CURVE('',#167,#165,#69,.T.);
#206=EDGE_CURVE('',#168,#166,#70,.T.);
#207=EDGE_CURVE('',#167,#168,#71,.T.);
#208=EDGE_CURVE('',#169,#167,#72,.T.);
#209=EDGE_CURVE('',#170,#168,#73,.T.);
#210=EDGE_CURVE('',#169,#170,#74,.T.);
#211=EDGE_CURVE('',#171,#169,#75,.T.);
#212=EDGE_CURVE('',#172,#170,#76,.T.);
#213=EDGE_CURVE('',#171,#172,#77,.T.);
#214=EDGE_CURVE('',#173,#171,#78,.T.);
#215=EDGE_CURVE('',#174,#172,#79,.T.);
#216=EDGE_CURVE('',#173,#174,#80,.T.);
#217=EDGE_CURVE('',#175,#173,#81,.T.);
#218=EDGE_CURVE('',#176,#174,#82,.T.);
#219=EDGE_CURVE('',#175,#176,#83,.T.);
#220=EDGE_CURVE('',#177,#175,#84,.T.);
#221=EDGE_CURVE('',#178,#176,#85,.T.);
#222=EDGE_CURVE('',#177,#178,#86,.T.);
#223=EDGE_CURVE('',#179,#177,#87,.T.);
#224=EDGE_CURVE('',#180,#178,#88,.T.);
#225=EDGE_CURVE('',#179,#180,#89,.T.);
#226=EDGE_CURVE('',#181,#179,#90,.T.);
#227=EDGE_CURVE('',#182,#180,#91,.T.);
#228=EDGE_CURVE('',#181,#182,#92,.T.);
#229=EDGE_CURVE('',#183,#181,#93,.T.);
#230=EDGE_CURVE('',#184,#182,#94,.T.);
#231=EDGE_CURVE('',#183,#184,#95,.T.);
#232=EDGE_CURVE('',#185,#183,#96,.T.);
#233=EDGE_CURVE('',#186,#184,#97,.T.);
#234=EDGE_CURVE('',#185,#186,#98,.T.);
#235=EDGE_CURVE('',#187,#185,#99,.T.);
#236=EDGE_CURVE('',#188,#186,#100,.T.);
#237=EDGE_CURVE('',#187,#188,#101,.T.);
#238=EDGE_CURVE('',#156,#187,#102,.T.);
#239=EDGE_CURVE('',#157,#188,#103,.T.);
#240=ORIENTED_EDGE('',*,*,#189,.T.);
#241=ORIENTED_EDGE('',*,*,#190,.T.);
#242=ORIENTED_EDGE('',*,*,#191,.F.);
#243=ORIENTED_EDGE('',*,*,#192,.F.);
#244=ORIENTED_EDGE('',*,*,#193,.T.);
#245=ORIENTED_EDGE('',*,*,#192,.T.);
#246=ORIENTED_EDGE('',*,*,#194,.F.);
#247=ORIENTED_EDGE('',*,*,#195,.F.);
#248=ORIENTED_EDGE('',*,*,#196,.T.);
#249=ORIENTED_EDGE('',*,*,#195,.T.);
#250=ORIENTED_EDGE('',*,*,#197,.F.);
#251=ORIENTED_EDGE('',*,*,#198,.F.);
#252=ORIENTED_EDGE('',*,*,#199,.T.);
#253=ORIENTED_EDGE('',*,*,#198,.T.);
#254=ORIENTED_EDGE('',*,*,#200,.F.);
#255=ORIENTED_EDGE('',*,*,#201,.F.);
#256=ORIENTED_EDGE('',*,*,#202,.T.);
#257=ORIENTED_EDGE('',*,*,#201,.T.);
#258=ORIENTED_EDGE('',*,*,#203,.F.);
#259=ORIENTED_EDGE('',*,*,#204,.F.);
#260=ORIENTED_EDGE('',*,*,#205,.T.);
#261=ORIENTED_EDGE('',*,*,#204,.T.);
#262=ORIENTED_EDGE('',*,*,#206,.F.);
#263=ORIENTED_EDGE('',*,*,#207,.F.);
#264=ORIENTED_EDGE('',*,*,#208,.T.);
#265=ORIENTED_EDGE('',*,*,#207,.T.);
#266=ORIENTED_EDGE('',*,*,#209,.F.);
#267=ORIENTED_EDGE('',*,*,#210,.F.);
#268=ORIENTED_EDGE('',*,*,#211,.T.);
#269=ORIENTED_EDGE('',*,*,#210,.T.);
#270=ORIENTED_EDGE('',*,*,#212,.F.);
#271=ORIENTED_EDGE('',*,*,#213,.F.);
#272=ORIENTED_EDGE('',*,*,#214,.T.);
#273=ORIENTED_EDGE('',*,*,#213,.T.);
#274=ORIENTED_EDGE('',*,*,#215,.F.);
#275=ORIENTED_EDGE('',*,*,#216,.F.);
#276=ORIENTED_EDGE('',*,*,#217,.T.);
#277=ORIENTED_EDGE('',*,*,#216,.T.);
#278=ORIENTED_EDGE('',*,*,#218,.F.);
#279=ORIENTED_EDGE('',*,*,#219,.F.);
#280=ORIENTED_EDGE('',*,*,#220,.T.);
#281=ORIENTED_EDGE('',*,*,#219,.T.);
#282=ORIENTED_EDGE('',*,*,#221,.F.);
#283=ORIENTED_EDGE('',*,*,#222,.F.);
#284=ORIENTED_EDGE('',*,*,#223,.T.);
#285=ORIENTED_EDGE('',*,*,#222,.T.);
#286=ORIENTED_EDGE('',*,*,#224,.F.);
#287=ORIENTED_EDGE('',*,*,#225,.F.);
#288=ORIENTED_EDGE('',*,*,#226,.T.);
#289=ORIENTED_EDGE('',*,*,#225,.T.);
#290=ORIENTED_EDGE('',*,*,#227,.F.);
#291=ORIENTED_EDGE('',*,*,#228,.F.);
#292=ORIENTED_EDGE('',*,*,#229,.T.);
#293=ORIENTED_EDGE('',*,*,#228,.T.);
#294=ORIENTED_EDGE('',*,*,#230,.F.);
#295=ORIENTED_EDGE('',*,*,#231,.F.);
#296=ORIENTED_EDGE('',*,*,#232,.T.);
#297=ORIENTED_EDGE('',*,*,#231,.T.);
#298=ORIENTED_EDGE('',*,*,#233,.F.);
#299=ORIENTED_EDGE('',*,*,#234,.F.);
#300=ORIENTED_EDGE('',*,*,#235,.T.);
#301=ORIENTED_EDGE('',*,*,#234,.T.);
#302=ORIENTED_EDGE('',*,*,#236,.F.);
#303=ORIENTED_EDGE('',*,*,#237,.F.);
#304=ORIENTED_EDGE('',*,*,#238,.T.);
#305=ORIENTED_EDGE('',*,*,#237,.T.);
#306=ORIENTED_EDGE('',*,*,#239,.F.);
#307=ORIENTED_EDGE('',*,*,#190,.F.);
#308=ORIENTED_EDGE('',*,*,#239,.T.);
#309=ORIENTED_EDGE('',*,*,#236,.T.);
#310=ORIENTED_EDGE('',*,*,#233,.T.);
#311=ORIENTED_EDGE('',*,*,#230,.T.);
#312=ORIENTED_EDGE('',*,*,#227,.T.);
#313=ORIENTED_EDGE('',*,*,#224,.T.);
#314=ORIENTED_EDGE('',*,*,#221,.T.);
#315=ORIENTED_EDGE('',*,*,#218,.T.);
#316=ORIENTED_EDGE('',*,*,#215,.T.);
#317=ORIENTED_EDGE('',*,*,#212,.T.);
#318=ORIENTED_EDGE('',*,*,#209,.T.);
#319=ORIENTED_EDGE('',*,*,#206,.T.);
#320=ORIENTED_EDGE('',*,*,#203,.T.);
#321=ORIENTED_EDGE('',*,*,#200,.T.);
#322=ORIENTED_EDGE('',*,*,#197,.T.);
#323=ORIENTED_EDGE('',*,*,#194,.T.);
#324=ORIENTED_EDGE('',*,*,#191,.T.);
#325=ORIENTED_EDGE('',*,*,#238,.F.);
#326=ORIENTED_EDGE('',*,*,#189,.F.);
#327=ORIENTED_EDGE('',*,*,#193,.F.);
#328=ORIENTED_EDGE('',*,*,#196,.F.);
#329=ORIENTED_EDGE('',*,*,#199,.F.);
#330=ORIENTED_EDGE('',*,*,#202,.F.);
#331=ORIENTED_EDGE('',*,*,#205,.F.);
#332=ORIENTED_EDGE('',*,*,#208,.F.);
#333=ORIENTED_EDGE('',*,*,#211,.F.);
#334=ORIENTED_EDGE('',*,*,#214,.F.);
#335=ORIENTED_EDGE('',*,*,#217,.F.);
#336=ORIENTED_EDGE('',*,*,#220,.F.);
#337=ORIENTED_EDGE('',*,*,#223,.F.);
#338=ORIENTED_EDGE('',*,*,#226,.F.);
#339=ORIENTED_EDGE('',*,*,#229,.F.);
#340=ORIENTED_EDGE('',*,*,#232,.F.);
#341=ORIENTED_EDGE('',*,*,#235,.F.);
#342=PLANE('',#400);
#343=PLANE('',#401);
#344=PLANE('',#402);
#345=PLANE('',#403);
#346=PLANE('',#404);
#347=PLANE('',#405);
#348=PLANE('',#406);
#349=PLANE('',#407);
#350=PLANE('',#408);
#351=PLANE('',#409);
#352=PLANE('',#410);
#353=PLANE('',#411);
#354=PLANE('',#412);
#355=PLANE('',#413);
#356=PLANE('',#414);
#357=PLANE('',#415);
#358=PLANE('',#416);
#359=PLANE('',#417);
#360=PLANE('',#418);
#361=ADVANCED_FACE('',(#15),#342,.T.);
#362=ADVANCED_FACE('',(#16),#343,.T.);
#363=ADVANCED_FACE('',(#17),#344,.T.);
#364=ADVANCED_FACE('',(#18),#345,.T.);
#365=ADVANCED_FACE('',(#19),#346,.T.);
#366=ADVANCED_FACE('',(#20),#347,.T.);
#367=ADVANCED_FACE('',(#21),#348,.T.);
#368=ADVANCED_FACE('',(#22),#349,.T.);
#369=ADVANCED_FACE('',(#23),#350,.T.);
#370=ADVANCED_FACE('',(#24),#351,.T.);
#371=ADVANCED_FACE('',(#25),#352,.T.);
#372=ADVANCED_FACE('',(#26),#353,.T.);
#373=ADVANCED_FACE('',(#27),#354,.T.);
#374=ADVANCED_FACE('',(#28),#355,.T.);
#375=ADVANCED_FACE('',(#29),#356,.T.);
#376=ADVANCED_FACE('',(#30),#357,.T.);
#377=ADVANCED_FACE('',(#31),#358,.T.);
#378=ADVANCED_FACE('',(#32),#359,.T.);
#379=ADVANCED_FACE('',(#33),#360,.F.);
#380=CLOSED_SHELL('',(#361,#362,#363,#364,#365,#366,#367,#368,#369,#370,
#371,#372,#373,#374,#375,#376,#377,#378,#379));
#381=DERIVED_UNIT_ELEMENT(#383,1.);
#382=DERIVED_UNIT_ELEMENT(#620,3.);
#383=(
MASS_UNIT()
NAMED_UNIT(*)
SI_UNIT($,.GRAM.)
);
#384=DERIVED_UNIT((#381,#382));
#385=MEASURE_REPRESENTATION_ITEM('density measure',
POSITIVE_RATIO_MEASURE(0.94),#384);
#386=PROPERTY_DEFINITION_REPRESENTATION(#391,#388);
#387=PROPERTY_DEFINITION_REPRESENTATION(#392,#389);
#388=REPRESENTATION('material name',(#390),#617);
#389=REPRESENTATION('density',(#385),#617);
#390=DESCRIPTIVE_REPRESENTATION_ITEM('Kst - PE/UHMW - Schwarz',
'Kst - PE/UHMW - Schwarz');
#391=PROPERTY_DEFINITION('material property','material name',#627);
#392=PROPERTY_DEFINITION('material property','density of part',#627);
#393=DATE_TIME_ROLE('creation_date');
#394=APPLIED_DATE_AND_TIME_ASSIGNMENT(#395,#393,(#627));
#395=DATE_AND_TIME(#396,#397);
#396=CALENDAR_DATE(2021,19,3);
#397=LOCAL_TIME(12,26,59.,#398);
#398=COORDINATED_UNIVERSAL_TIME_OFFSET(0,0,.BEHIND.);
#399=AXIS2_PLACEMENT_3D('placement',#510,#419,#420);
#400=AXIS2_PLACEMENT_3D('',#511,#421,#422);
#401=AXIS2_PLACEMENT_3D('',#520,#427,#428);
#402=AXIS2_PLACEMENT_3D('',#526,#432,#433);
#403=AXIS2_PLACEMENT_3D('',#532,#437,#438);
#404=AXIS2_PLACEMENT_3D('',#538,#442,#443);
#405=AXIS2_PLACEMENT_3D('',#544,#447,#448);
#406=AXIS2_PLACEMENT_3D('',#550,#452,#453);
#407=AXIS2_PLACEMENT_3D('',#556,#457,#458);
#408=AXIS2_PLACEMENT_3D('',#562,#462,#463);
#409=AXIS2_PLACEMENT_3D('',#568,#467,#468);
#410=AXIS2_PLACEMENT_3D('',#574,#472,#473);
#411=AXIS2_PLACEMENT_3D('',#580,#477,#478);
#412=AXIS2_PLACEMENT_3D('',#586,#482,#483);
#413=AXIS2_PLACEMENT_3D('',#592,#487,#488);
#414=AXIS2_PLACEMENT_3D('',#598,#492,#493);
#415=AXIS2_PLACEMENT_3D('',#604,#497,#498);
#416=AXIS2_PLACEMENT_3D('',#610,#502,#503);
#417=AXIS2_PLACEMENT_3D('',#613,#506,#507);
#418=AXIS2_PLACEMENT_3D('',#614,#508,#509);
#419=DIRECTION('axis',(0.,0.,1.));
#420=DIRECTION('refdir',(1.,0.,0.));
#421=DIRECTION('center_axis',(-0.592972158652019,0.80522296233004,0.));
#422=DIRECTION('ref_axis',(-0.80522296233004,-0.592972158652018,0.));
#423=DIRECTION('',(-0.80522296233004,-0.592972158652018,0.));
#424=DIRECTION('',(0.,0.,1.));
#425=DIRECTION('',(-0.80522296233004,-0.592972158652018,0.));
#426=DIRECTION('',(0.,0.,1.));
#427=DIRECTION('center_axis',(-0.500919414992095,0.865493928161242,0.));
#428=DIRECTION('ref_axis',(-0.865493928161242,-0.500919414992095,0.));
#429=DIRECTION('',(-0.865493928161242,-0.500919414992095,0.));
#430=DIRECTION('',(-0.865493928161242,-0.500919414992095,0.));
#431=DIRECTION('',(0.,0.,1.));
#432=DIRECTION('center_axis',(0.825606210754552,0.564246741030474,0.));
#433=DIRECTION('ref_axis',(-0.564246741030474,0.825606210754552,0.));
#434=DIRECTION('',(-0.564246741030474,0.825606210754552,0.));
#435=DIRECTION('',(-0.564246741030474,0.825606210754552,0.));
#436=DIRECTION('',(0.,0.,1.));
#437=DIRECTION('center_axis',(0.564246741030474,-0.825606210754552,0.));
#438=DIRECTION('ref_axis',(0.825606210754552,0.564246741030474,0.));
#439=DIRECTION('',(0.825606210754552,0.564246741030474,0.));
#440=DIRECTION('',(0.825606210754552,0.564246741030474,0.));
#441=DIRECTION('',(0.,0.,1.));
#442=DIRECTION('center_axis',(0.997119322550888,0.0758489063576952,0.));
#443=DIRECTION('ref_axis',(-0.0758489063576952,0.997119322550888,0.));
#444=DIRECTION('',(-0.0758489063576952,0.997119322550888,0.));
#445=DIRECTION('',(-0.0758489063576952,0.997119322550888,0.));
#446=DIRECTION('',(0.,0.,1.));
#447=DIRECTION('center_axis',(-0.537850989024532,0.843039924087426,0.));
#448=DIRECTION('ref_axis',(-0.843039924087426,-0.537850989024532,0.));
#449=DIRECTION('',(-0.843039924087426,-0.537850989024532,0.));
#450=DIRECTION('',(-0.843039924087426,-0.537850989024532,0.));
#451=DIRECTION('',(0.,0.,1.));
#452=DIRECTION('center_axis',(0.82560621075455,0.564246741030477,0.));
#453=DIRECTION('ref_axis',(-0.564246741030477,0.82560621075455,0.));
#454=DIRECTION('',(-0.564246741030477,0.82560621075455,0.));
#455=DIRECTION('',(-0.564246741030477,0.82560621075455,0.));
#456=DIRECTION('',(0.,0.,1.));
#457=DIRECTION('center_axis',(0.644762833121316,-0.764382684932995,0.));
#458=DIRECTION('ref_axis',(0.764382684932995,0.644762833121316,0.));
#459=DIRECTION('',(0.764382684932995,0.644762833121316,0.));
#460=DIRECTION('',(0.764382684932995,0.644762833121316,0.));
#461=DIRECTION('',(0.,0.,1.));
#462=DIRECTION('center_axis',(0.997119322550888,0.0758489063576949,0.));
#463=DIRECTION('ref_axis',(-0.0758489063576949,0.997119322550888,0.));
#464=DIRECTION('',(-0.0758489063576949,0.997119322550888,0.));
#465=DIRECTION('',(-0.0758489063576949,0.997119322550888,0.));
#466=DIRECTION('',(0.,0.,1.));
#467=DIRECTION('center_axis',(0.432872581520415,0.901455117112245,0.));
#468=DIRECTION('ref_axis',(-0.901455117112245,0.432872581520415,0.));
#469=DIRECTION('',(-0.901455117112245,0.432872581520415,0.));
#470=DIRECTION('',(-0.901455117112245,0.432872581520415,0.));
#471=DIRECTION('',(0.,0.,1.));
#472=DIRECTION('center_axis',(0.901455117112251,-0.432872581520403,0.));
#473=DIRECTION('ref_axis',(0.432872581520403,0.901455117112251,0.));
#474=DIRECTION('',(0.432872581520403,0.901455117112251,0.));
#475=DIRECTION('',(0.432872581520403,0.901455117112251,0.));
#476=DIRECTION('',(0.,0.,1.));
#477=DIRECTION('center_axis',(-0.184809053369216,-0.982774447059331,0.));
#478=DIRECTION('ref_axis',(0.982774447059331,-0.184809053369216,0.));
#479=DIRECTION('',(0.982774447059331,-0.184809053369216,0.));
#480=DIRECTION('',(0.982774447059331,-0.184809053369216,0.));
#481=DIRECTION('',(0.,0.,1.));
#482=DIRECTION('center_axis',(-0.825606210754553,-0.564246741030472,0.));
#483=DIRECTION('ref_axis',(0.564246741030472,-0.825606210754553,0.));
#484=DIRECTION('',(0.564246741030472,-0.825606210754553,0.));
#485=DIRECTION('',(0.564246741030472,-0.825606210754553,0.));
#486=DIRECTION('',(0.,0.,1.));
#487=DIRECTION('center_axis',(0.288455363158326,0.957493343822921,0.));
#488=DIRECTION('ref_axis',(-0.957493343822921,0.288455363158326,0.));
#489=DIRECTION('',(-0.957493343822921,0.288455363158326,0.));
#490=DIRECTION('',(-0.957493343822921,0.288455363158326,0.));
#491=DIRECTION('',(0.,0.,1.));
#492=DIRECTION('center_axis',(-0.997119322550888,-0.0758489063576935,0.));
#493=DIRECTION('ref_axis',(0.0758489063576935,-0.997119322550888,0.));
#494=DIRECTION('',(0.0758489063576935,-0.997119322550888,0.));
#495=DIRECTION('',(0.0758489063576935,-0.997119322550888,0.));
#496=DIRECTION('',(0.,0.,1.));
#497=DIRECTION('center_axis',(0.564246741030472,-0.825606210754553,0.));
#498=DIRECTION('ref_axis',(0.825606210754553,0.564246741030472,0.));
#499=DIRECTION('',(0.825606210754553,0.564246741030472,0.));
#500=DIRECTION('',(0.825606210754553,0.564246741030472,0.));
#501=DIRECTION('',(0.,0.,1.));
#502=DIRECTION('center_axis',(-0.825606210754559,-0.564246741030463,0.));
#503=DIRECTION('ref_axis',(0.564246741030463,-0.825606210754559,0.));
#504=DIRECTION('',(0.564246741030463,-0.825606210754559,0.));
#505=DIRECTION('',(0.564246741030463,-0.825606210754559,0.));
#506=DIRECTION('center_axis',(0.,0.,1.));
#507=DIRECTION('ref_axis',(1.,0.,0.));
#508=DIRECTION('center_axis',(0.,0.,1.));
#509=DIRECTION('ref_axis',(1.,0.,0.));
#510=CARTESIAN_POINT('',(0.,0.,0.));
#511=CARTESIAN_POINT('Origin',(-6.97856827973495,6.73049788404719,0.));
#512=CARTESIAN_POINT('',(-6.97856827973495,6.73049788404719,0.));
#513=CARTESIAN_POINT('',(-10.2014593309709,4.35713702232805,0.));
#514=CARTESIAN_POINT('',(-6.97856827973495,6.73049788404719,0.));
#515=CARTESIAN_POINT('',(-10.2014593309709,4.35713702232805,1000.));
#516=CARTESIAN_POINT('',(-10.2014593309709,4.35713702232805,0.));
#517=CARTESIAN_POINT('',(-6.97856827973495,6.73049788404719,1000.));
#518=CARTESIAN_POINT('',(-6.97856827973495,6.73049788404719,1000.));
#519=CARTESIAN_POINT('',(-6.97856827973495,6.73049788404719,0.));
#520=CARTESIAN_POINT('Origin',(-0.0351705490802612,10.7491080858382,0.));
#521=CARTESIAN_POINT('',(-0.0351705490802607,10.7491080858382,0.));
#522=CARTESIAN_POINT('',(-0.0351705490802612,10.7491080858382,0.));
#523=CARTESIAN_POINT('',(-0.0351705490802612,10.7491080858382,1000.));
#524=CARTESIAN_POINT('',(-0.0351705490802612,10.7491080858382,1000.));
#525=CARTESIAN_POINT('',(-0.0351705490802607,10.7491080858382,0.));
#526=CARTESIAN_POINT('Origin',(0.81119956246545,9.51069876970642,0.));
#527=CARTESIAN_POINT('',(0.81119956246545,9.51069876970642,0.));
#528=CARTESIAN_POINT('',(0.81119956246545,9.51069876970642,0.));
#529=CARTESIAN_POINT('',(0.81119956246545,9.51069876970642,1000.));
#530=CARTESIAN_POINT('',(0.81119956246545,9.51069876970642,1000.));
#531=CARTESIAN_POINT('',(0.81119956246545,9.51069876970642,0.));
#532=CARTESIAN_POINT('Origin',(-4.55524080743914,5.84309495300834,0.));
#533=CARTESIAN_POINT('',(-4.55524080743914,5.84309495300834,0.));
#534=CARTESIAN_POINT('',(-4.55524080743914,5.84309495300834,0.));
#535=CARTESIAN_POINT('',(-4.55524080743914,5.84309495300834,1000.));
#536=CARTESIAN_POINT('',(-4.55524080743914,5.84309495300834,1000.));
#537=CARTESIAN_POINT('',(-4.55524080743914,5.84309495300834,0.));
#538=CARTESIAN_POINT('Origin',(-4.20059787627431,1.18091409567478,0.));
#539=CARTESIAN_POINT('',(-4.20059787627431,1.18091409567478,0.));
#540=CARTESIAN_POINT('',(-4.20059787627431,1.18091409567478,0.));
#541=CARTESIAN_POINT('',(-4.20059787627431,1.18091409567478,1000.));
#542=CARTESIAN_POINT('',(-4.20059787627431,1.18091409567478,1000.));
#543=CARTESIAN_POINT('',(-4.20059787627431,1.18091409567478,0.));
#544=CARTESIAN_POINT('Origin',(0.103520978963704,3.92689861790819,0.));
#545=CARTESIAN_POINT('',(0.103520978963704,3.92689861790819,0.));
#546=CARTESIAN_POINT('',(0.103520978963704,3.92689861790819,0.));
#547=CARTESIAN_POINT('',(0.103520978963705,3.92689861790819,1000.));
#548=CARTESIAN_POINT('',(0.103520978963704,3.92689861790819,1000.));
#549=CARTESIAN_POINT('',(0.103520978963704,3.92689861790819,0.));
#550=CARTESIAN_POINT('Origin',(0.667767719994176,3.10129240715365,0.));
#551=CARTESIAN_POINT('',(0.667767719994176,3.10129240715365,0.));
#552=CARTESIAN_POINT('',(0.667767719994176,3.10129240715365,0.));
#553=CARTESIAN_POINT('',(0.667767719994177,3.10129240715365,1000.));
#554=CARTESIAN_POINT('',(0.667767719994176,3.10129240715365,1000.));
#555=CARTESIAN_POINT('',(0.667767719994176,3.10129240715365,0.));
#556=CARTESIAN_POINT('Origin',(-4.04433028161078,-0.873399481277117,0.));
#557=CARTESIAN_POINT('',(-4.04433028161078,-0.873399481277117,0.));
#558=CARTESIAN_POINT('',(-4.04433028161078,-0.873399481277117,0.));
#559=CARTESIAN_POINT('',(-4.04433028161078,-0.873399481277117,1000.));
#560=CARTESIAN_POINT('',(-4.04433028161078,-0.873399481277117,1000.));
#561=CARTESIAN_POINT('',(-4.04433028161078,-0.873399481277117,0.));
#562=CARTESIAN_POINT('Origin',(-3.78158196259066,-4.3275221370107,0.));
#563=CARTESIAN_POINT('',(-3.78158196259066,-4.3275221370107,0.));
#564=CARTESIAN_POINT('',(-3.78158196259066,-4.3275221370107,0.));
#565=CARTESIAN_POINT('',(-3.78158196259066,-4.3275221370107,1000.));
#566=CARTESIAN_POINT('',(-3.78158196259066,-4.3275221370107,1000.));
#567=CARTESIAN_POINT('',(-3.78158196259066,-4.3275221370107,0.));
#568=CARTESIAN_POINT('Origin',(0.763597202380416,-6.51008608419483,0.));
#569=CARTESIAN_POINT('',(0.763597202380416,-6.51008608419483,0.));
#570=CARTESIAN_POINT('',(0.763597202380416,-6.51008608419483,0.));
#571=CARTESIAN_POINT('',(0.763597202380415,-6.51008608419483,1000.));
#572=CARTESIAN_POINT('',(0.763597202380416,-6.51008608419483,1000.));
#573=CARTESIAN_POINT('',(0.763597202380416,-6.51008608419483,0.));
#574=CARTESIAN_POINT('Origin',(0.41729913716409,-7.23125017788464,0.));
#575=CARTESIAN_POINT('',(0.41729913716409,-7.23125017788464,0.));
#576=CARTESIAN_POINT('',(0.41729913716409,-7.23125017788464,0.));
#577=CARTESIAN_POINT('',(0.417299137164091,-7.23125017788464,1000.));
#578=CARTESIAN_POINT('',(0.41729913716409,-7.23125017788464,1000.));
#579=CARTESIAN_POINT('',(0.41729913716409,-7.23125017788464,0.));
#580=CARTESIAN_POINT('Origin',(-4.7643551272888,-6.25684895859624,0.));
#581=CARTESIAN_POINT('',(-4.7643551272888,-6.25684895859624,0.));
#582=CARTESIAN_POINT('',(-4.7643551272888,-6.25684895859624,0.));
#583=CARTESIAN_POINT('',(-4.7643551272888,-6.25684895859623,1000.));
#584=CARTESIAN_POINT('',(-4.7643551272888,-6.25684895859624,1000.));
#585=CARTESIAN_POINT('',(-4.7643551272888,-6.25684895859624,0.));
#586=CARTESIAN_POINT('Origin',(-7.92037371366732,-1.63896044157565,0.));
#587=CARTESIAN_POINT('',(-7.92037371366732,-1.63896044157565,0.));
#588=CARTESIAN_POINT('',(-7.92037371366732,-1.63896044157565,0.));
#589=CARTESIAN_POINT('',(-7.92037371366732,-1.63896044157565,1000.));
#590=CARTESIAN_POINT('',(-7.92037371366732,-1.63896044157565,1000.));
#591=CARTESIAN_POINT('',(-7.92037371366732,-1.63896044157565,0.));
#592=CARTESIAN_POINT('Origin',(-6.4598481805129,-2.07895976458502,0.));
#593=CARTESIAN_POINT('',(-6.4598481805129,-2.07895976458502,0.));
#594=CARTESIAN_POINT('',(-6.4598481805129,-2.07895976458502,0.));
#595=CARTESIAN_POINT('',(-6.4598481805129,-2.07895976458502,1000.));
#596=CARTESIAN_POINT('',(-6.4598481805129,-2.07895976458502,1000.));
#597=CARTESIAN_POINT('',(-6.4598481805129,-2.07895976458502,0.));
#598=CARTESIAN_POINT('Origin',(-6.93856064755798,4.21425491389178,0.));
#599=CARTESIAN_POINT('',(-6.93856064755798,4.21425491389178,0.));
#600=CARTESIAN_POINT('',(-6.93856064755798,4.21425491389178,0.));
#601=CARTESIAN_POINT('',(-6.93856064755798,4.21425491389178,1000.));
#602=CARTESIAN_POINT('',(-6.93856064755798,4.21425491389178,1000.));
#603=CARTESIAN_POINT('',(-6.93856064755798,4.21425491389178,0.));
#604=CARTESIAN_POINT('Origin',(-9.09607496658918,2.73973787734075,0.));
#605=CARTESIAN_POINT('',(-9.09607496658918,2.73973787734075,0.));
#606=CARTESIAN_POINT('',(-9.09607496658918,2.73973787734075,0.));
#607=CARTESIAN_POINT('',(-9.09607496658918,2.73973787734075,1000.));
#608=CARTESIAN_POINT('',(-9.09607496658918,2.73973787734075,1000.));
#609=CARTESIAN_POINT('',(-9.09607496658918,2.73973787734075,0.));
#610=CARTESIAN_POINT('Origin',(-10.2014593309709,4.35713702232805,0.));
#611=CARTESIAN_POINT('',(-10.2014593309709,4.35713702232805,0.));
#612=CARTESIAN_POINT('',(-10.2014593309709,4.35713702232805,1000.));
#613=CARTESIAN_POINT('Origin',(-3.96510634341267,1.69246208657301,1000.));
#614=CARTESIAN_POINT('Origin',(-3.96510634341267,1.69246208657301,0.));
#615=UNCERTAINTY_MEASURE_WITH_UNIT(LENGTH_MEASURE(0.01),#619,
'DISTANCE_ACCURACY_VALUE',
'Maximum model space distance between geometric entities at asserted c
onnectivities');
#616=UNCERTAINTY_MEASURE_WITH_UNIT(LENGTH_MEASURE(0.01),#619,
'DISTANCE_ACCURACY_VALUE',
'Maximum model space distance between geometric entities at asserted c
onnectivities');
#617=(
GEOMETRIC_REPRESENTATION_CONTEXT(3)
GLOBAL_UNCERTAINTY_ASSIGNED_CONTEXT((#615))
GLOBAL_UNIT_ASSIGNED_CONTEXT((#619,#622,#621))
REPRESENTATION_CONTEXT('','3D')
);
#618=(
GEOMETRIC_REPRESENTATION_CONTEXT(3)
GLOBAL_UNCERTAINTY_ASSIGNED_CONTEXT((#616))
GLOBAL_UNIT_ASSIGNED_CONTEXT((#619,#622,#621))
REPRESENTATION_CONTEXT('','3D')
);
#619=(
LENGTH_UNIT()
NAMED_UNIT(*)
SI_UNIT(.MILLI.,.METRE.)
);
#620=(
LENGTH_UNIT()
NAMED_UNIT(*)
SI_UNIT(.CENTI.,.METRE.)
);
#621=(
NAMED_UNIT(*)
SI_UNIT($,.STERADIAN.)
SOLID_ANGLE_UNIT()
);
#622=(
NAMED_UNIT(*)
PLANE_ANGLE_UNIT()
SI_UNIT($,.RADIAN.)
);
#623=SHAPE_DEFINITION_REPRESENTATION(#624,#625);
#624=PRODUCT_DEFINITION_SHAPE('',$,#627);
#625=SHAPE_REPRESENTATION('',(#399),#617);
#626=PRODUCT_DEFINITION_CONTEXT('part definition',#631,'design');
#627=PRODUCT_DEFINITION('80007',
'80007 KriTec Dichtprofil 10 Raster 45, 4-6mm, schwarz',#628,#626);
#628=PRODUCT_DEFINITION_FORMATION('',$,#633);
#629=PRODUCT_RELATED_PRODUCT_CATEGORY(
'80007 KriTec Dichtprofil 10 Raster 45, 4-6mm, schwarz',
'80007 KriTec Dichtprofil 10 Raster 45, 4-6mm, schwarz',(#633));
#630=APPLICATION_PROTOCOL_DEFINITION('international standard',
'automotive_design',2009,#631);
#631=APPLICATION_CONTEXT(
'Core Data for Automotive Mechanical Design Process');
#632=PRODUCT_CONTEXT('part definition',#631,'mechanical');
#633=PRODUCT('80007',
'80007 KriTec Dichtprofil 10 Raster 45, 4-6mm, schwarz',
'KriTec Dichtprofil 10 Raster 45, 4-6mm, schwarz',(#632));
#634=PRESENTATION_STYLE_ASSIGNMENT((#635));
#635=SURFACE_STYLE_USAGE(.BOTH.,#636);
#636=SURFACE_SIDE_STYLE('',(#637));
#637=SURFACE_STYLE_FILL_AREA(#638);
#638=FILL_AREA_STYLE('',(#639));
#639=FILL_AREA_STYLE_COLOUR('',#640);
#640=COLOUR_RGB('',0.0196078431372549,0.0196078431372549,0.0196078431372549);
ENDSEC;
END-ISO-10303-21;
