ISO-10303-21;
HEADER;
/* Generated by software containing ST-Developer
 * from STEP Tools, Inc. (www.steptools.com) 
 */

FILE_DESCRIPTION(
/* description */ ('Titel eingeben'),
/* implementation_level */ '2;1');

FILE_NAME(
/* name */ 
'S:\\Bilder_neu\\55000_KriTec_Aluminium_Flachprofil_M_40x2_E_silber_el
oxiert\\Inventordateien\\55000_KriTec_Aluminium_Flachprofil_M_40x2_E_s
ilber_eloxiert.stp',
/* time_stamp */ '2018-01-16T16:38:11+01:00',
/* author */ ('Steiner'),
/* organization */ (''),
/* preprocessor_version */ 'ST-DEVELOPER v16.1',
/* originating_system */ 'Autodesk Inventor 2016',
/* authorisation */ '');

FILE_SCHEMA (('CONFIG_CONTROL_DESIGN'));
ENDSEC;

DATA;
#10=MECHANICAL_DESIGN_GEOMETRIC_PRESENTATION_REPRESENTATION('',(#13),#241);
#11=SHAPE_REPRESENTATION_RELATIONSHIP('SRR','None',#250,#12);
#12=ADVANCED_BREP_SHAPE_REPRESENTATION('',(#14),#240);
#13=STYLED_ITEM('',(#259),#14);
#14=MANIFOLD_SOLID_BREP('Volumenk\X\F6rper4',#145);
#15=PLANE('',#150);
#16=PLANE('',#151);
#17=PLANE('',#155);
#18=PLANE('',#156);
#19=PLANE('',#157);
#20=PLANE('',#158);
#21=FACE_OUTER_BOUND('',#29,.T.);
#22=FACE_OUTER_BOUND('',#30,.T.);
#23=FACE_OUTER_BOUND('',#31,.T.);
#24=FACE_OUTER_BOUND('',#32,.T.);
#25=FACE_OUTER_BOUND('',#33,.T.);
#26=FACE_OUTER_BOUND('',#34,.T.);
#27=FACE_OUTER_BOUND('',#35,.T.);
#28=FACE_OUTER_BOUND('',#36,.T.);
#29=EDGE_LOOP('',(#99,#100,#101,#102));
#30=EDGE_LOOP('',(#103,#104,#105,#106));
#31=EDGE_LOOP('',(#107,#108,#109,#110,#111,#112));
#32=EDGE_LOOP('',(#113,#114,#115,#116));
#33=EDGE_LOOP('',(#117,#118,#119,#120));
#34=EDGE_LOOP('',(#121,#122,#123,#124));
#35=EDGE_LOOP('',(#125,#126,#127,#128));
#36=EDGE_LOOP('',(#129,#130,#131,#132,#133,#134));
#37=LINE('',#205,#51);
#38=LINE('',#208,#52);
#39=LINE('',#211,#53);
#40=LINE('',#213,#54);
#41=LINE('',#214,#55);
#42=LINE('',#217,#56);
#43=LINE('',#221,#57);
#44=LINE('',#222,#58);
#45=LINE('',#227,#59);
#46=LINE('',#228,#60);
#47=LINE('',#231,#61);
#48=LINE('',#232,#62);
#49=LINE('',#234,#63);
#50=LINE('',#236,#64);
#51=VECTOR('',#165,1000.);
#52=VECTOR('',#168,1000.);
#53=VECTOR('',#171,1.);
#54=VECTOR('',#172,1000.);
#55=VECTOR('',#173,1.);
#56=VECTOR('',#176,38.);
#57=VECTOR('',#179,1.);
#58=VECTOR('',#180,40.);
#59=VECTOR('',#185,1000.);
#60=VECTOR('',#186,1000.);
#61=VECTOR('',#189,1.);
#62=VECTOR('',#190,1000.);
#63=VECTOR('',#193,38.);
#64=VECTOR('',#196,40.);
#65=CIRCLE('',#148,1.);
#66=CIRCLE('',#149,1.);
#67=CIRCLE('',#152,1.);
#68=CIRCLE('',#154,1.);
#69=VERTEX_POINT('',#201);
#70=VERTEX_POINT('',#202);
#71=VERTEX_POINT('',#204);
#72=VERTEX_POINT('',#206);
#73=VERTEX_POINT('',#210);
#74=VERTEX_POINT('',#212);
#75=VERTEX_POINT('',#216);
#76=VERTEX_POINT('',#218);
#77=VERTEX_POINT('',#220);
#78=VERTEX_POINT('',#224);
#79=VERTEX_POINT('',#225);
#80=VERTEX_POINT('',#230);
#81=EDGE_CURVE('',#69,#70,#65,.T.);
#82=EDGE_CURVE('',#70,#71,#37,.T.);
#83=EDGE_CURVE('',#71,#72,#66,.T.);
#84=EDGE_CURVE('',#72,#69,#38,.T.);
#85=EDGE_CURVE('',#72,#73,#39,.T.);
#86=EDGE_CURVE('',#73,#74,#40,.T.);
#87=EDGE_CURVE('',#69,#74,#41,.T.);
#88=EDGE_CURVE('',#75,#71,#42,.T.);
#89=EDGE_CURVE('',#76,#75,#67,.T.);
#90=EDGE_CURVE('',#77,#76,#43,.T.);
#91=EDGE_CURVE('',#73,#77,#44,.T.);
#92=EDGE_CURVE('',#78,#79,#68,.T.);
#93=EDGE_CURVE('',#79,#76,#45,.T.);
#94=EDGE_CURVE('',#75,#78,#46,.T.);
#95=EDGE_CURVE('',#80,#79,#47,.T.);
#96=EDGE_CURVE('',#77,#80,#48,.T.);
#97=EDGE_CURVE('',#78,#70,#49,.T.);
#98=EDGE_CURVE('',#74,#80,#50,.T.);
#99=ORIENTED_EDGE('',*,*,#81,.T.);
#100=ORIENTED_EDGE('',*,*,#82,.T.);
#101=ORIENTED_EDGE('',*,*,#83,.T.);
#102=ORIENTED_EDGE('',*,*,#84,.T.);
#103=ORIENTED_EDGE('',*,*,#84,.F.);
#104=ORIENTED_EDGE('',*,*,#85,.T.);
#105=ORIENTED_EDGE('',*,*,#86,.T.);
#106=ORIENTED_EDGE('',*,*,#87,.F.);
#107=ORIENTED_EDGE('',*,*,#83,.F.);
#108=ORIENTED_EDGE('',*,*,#88,.F.);
#109=ORIENTED_EDGE('',*,*,#89,.F.);
#110=ORIENTED_EDGE('',*,*,#90,.F.);
#111=ORIENTED_EDGE('',*,*,#91,.F.);
#112=ORIENTED_EDGE('',*,*,#85,.F.);
#113=ORIENTED_EDGE('',*,*,#92,.T.);
#114=ORIENTED_EDGE('',*,*,#93,.T.);
#115=ORIENTED_EDGE('',*,*,#89,.T.);
#116=ORIENTED_EDGE('',*,*,#94,.T.);
#117=ORIENTED_EDGE('',*,*,#93,.F.);
#118=ORIENTED_EDGE('',*,*,#95,.F.);
#119=ORIENTED_EDGE('',*,*,#96,.F.);
#120=ORIENTED_EDGE('',*,*,#90,.T.);
#121=ORIENTED_EDGE('',*,*,#82,.F.);
#122=ORIENTED_EDGE('',*,*,#97,.F.);
#123=ORIENTED_EDGE('',*,*,#94,.F.);
#124=ORIENTED_EDGE('',*,*,#88,.T.);
#125=ORIENTED_EDGE('',*,*,#91,.T.);
#126=ORIENTED_EDGE('',*,*,#96,.T.);
#127=ORIENTED_EDGE('',*,*,#98,.F.);
#128=ORIENTED_EDGE('',*,*,#86,.F.);
#129=ORIENTED_EDGE('',*,*,#81,.F.);
#130=ORIENTED_EDGE('',*,*,#87,.T.);
#131=ORIENTED_EDGE('',*,*,#98,.T.);
#132=ORIENTED_EDGE('',*,*,#95,.T.);
#133=ORIENTED_EDGE('',*,*,#92,.F.);
#134=ORIENTED_EDGE('',*,*,#97,.T.);
#135=CYLINDRICAL_SURFACE('',#147,1.);
#136=CYLINDRICAL_SURFACE('',#153,1.);
#137=ADVANCED_FACE('',(#21),#135,.T.);
#138=ADVANCED_FACE('',(#22),#15,.T.);
#139=ADVANCED_FACE('',(#23),#16,.F.);
#140=ADVANCED_FACE('',(#24),#136,.T.);
#141=ADVANCED_FACE('',(#25),#17,.T.);
#142=ADVANCED_FACE('',(#26),#18,.T.);
#143=ADVANCED_FACE('',(#27),#19,.T.);
#144=ADVANCED_FACE('',(#28),#20,.T.);
#145=CLOSED_SHELL('',(#137,#138,#139,#140,#141,#142,#143,#144));
#146=AXIS2_PLACEMENT_3D('placement',#199,#159,#160);
#147=AXIS2_PLACEMENT_3D('',#200,#161,#162);
#148=AXIS2_PLACEMENT_3D('',#203,#163,#164);
#149=AXIS2_PLACEMENT_3D('',#207,#166,#167);
#150=AXIS2_PLACEMENT_3D('',#209,#169,#170);
#151=AXIS2_PLACEMENT_3D('',#215,#174,#175);
#152=AXIS2_PLACEMENT_3D('',#219,#177,#178);
#153=AXIS2_PLACEMENT_3D('',#223,#181,#182);
#154=AXIS2_PLACEMENT_3D('',#226,#183,#184);
#155=AXIS2_PLACEMENT_3D('',#229,#187,#188);
#156=AXIS2_PLACEMENT_3D('',#233,#191,#192);
#157=AXIS2_PLACEMENT_3D('',#235,#194,#195);
#158=AXIS2_PLACEMENT_3D('',#237,#197,#198);
#159=DIRECTION('axis',(0.,0.,1.));
#160=DIRECTION('refdir',(1.,0.,0.));
#161=DIRECTION('center_axis',(0.,0.,1.));
#162=DIRECTION('ref_axis',(-0.707106781186548,0.707106781186547,0.));
#163=DIRECTION('center_axis',(0.,0.,-1.));
#164=DIRECTION('ref_axis',(-0.707106781186548,0.707106781186547,0.));
#165=DIRECTION('',(0.,0.,-1.));
#166=DIRECTION('center_axis',(0.,0.,1.));
#167=DIRECTION('ref_axis',(-0.707106781186548,0.707106781186547,0.));
#168=DIRECTION('',(0.,0.,1.));
#169=DIRECTION('center_axis',(-1.,0.,0.));
#170=DIRECTION('ref_axis',(0.,-1.,0.));
#171=DIRECTION('',(0.,-1.,0.));
#172=DIRECTION('',(0.,0.,1.));
#173=DIRECTION('',(0.,-1.,0.));
#174=DIRECTION('center_axis',(0.,0.,1.));
#175=DIRECTION('ref_axis',(1.,0.,0.));
#176=DIRECTION('',(-1.,0.,0.));
#177=DIRECTION('center_axis',(0.,0.,1.));
#178=DIRECTION('ref_axis',(0.707106781186546,0.707106781186549,0.));
#179=DIRECTION('',(0.,1.,0.));
#180=DIRECTION('',(1.,0.,0.));
#181=DIRECTION('center_axis',(0.,0.,1.));
#182=DIRECTION('ref_axis',(0.707106781186546,0.707106781186549,0.));
#183=DIRECTION('center_axis',(0.,0.,-1.));
#184=DIRECTION('ref_axis',(0.707106781186546,0.707106781186549,0.));
#185=DIRECTION('',(0.,0.,-1.));
#186=DIRECTION('',(0.,0.,1.));
#187=DIRECTION('center_axis',(1.,0.,0.));
#188=DIRECTION('ref_axis',(0.,1.,0.));
#189=DIRECTION('',(0.,1.,0.));
#190=DIRECTION('',(0.,0.,1.));
#191=DIRECTION('center_axis',(0.,1.,0.));
#192=DIRECTION('ref_axis',(-1.,0.,0.));
#193=DIRECTION('',(-1.,0.,0.));
#194=DIRECTION('center_axis',(0.,-1.,0.));
#195=DIRECTION('ref_axis',(1.,0.,0.));
#196=DIRECTION('',(1.,0.,0.));
#197=DIRECTION('center_axis',(0.,0.,1.));
#198=DIRECTION('ref_axis',(1.,0.,0.));
#199=CARTESIAN_POINT('',(0.,0.,0.));
#200=CARTESIAN_POINT('Origin',(1.,1.,0.));
#201=CARTESIAN_POINT('',(0.,1.,1000.));
#202=CARTESIAN_POINT('',(1.,2.,1000.));
#203=CARTESIAN_POINT('Origin',(1.,1.,1000.));
#204=CARTESIAN_POINT('',(1.,2.,0.));
#205=CARTESIAN_POINT('',(1.,2.,0.));
#206=CARTESIAN_POINT('',(0.,1.,0.));
#207=CARTESIAN_POINT('Origin',(1.,1.,0.));
#208=CARTESIAN_POINT('',(0.,1.,0.));
#209=CARTESIAN_POINT('Origin',(0.,2.,0.));
#210=CARTESIAN_POINT('',(0.,0.,0.));
#211=CARTESIAN_POINT('',(0.,2.,0.));
#212=CARTESIAN_POINT('',(0.,0.,1000.));
#213=CARTESIAN_POINT('',(0.,0.,0.));
#214=CARTESIAN_POINT('',(0.,2.,1000.));
#215=CARTESIAN_POINT('Origin',(20.,1.,0.));
#216=CARTESIAN_POINT('',(39.,2.,0.));
#217=CARTESIAN_POINT('',(40.,2.,0.));
#218=CARTESIAN_POINT('',(40.,1.,0.));
#219=CARTESIAN_POINT('Origin',(39.,1.,0.));
#220=CARTESIAN_POINT('',(40.,0.,0.));
#221=CARTESIAN_POINT('',(40.,0.,0.));
#222=CARTESIAN_POINT('',(0.,0.,0.));
#223=CARTESIAN_POINT('Origin',(39.,1.,0.));
#224=CARTESIAN_POINT('',(39.,2.,1000.));
#225=CARTESIAN_POINT('',(40.,1.,1000.));
#226=CARTESIAN_POINT('Origin',(39.,1.,1000.));
#227=CARTESIAN_POINT('',(40.,1.,0.));
#228=CARTESIAN_POINT('',(39.,2.,0.));
#229=CARTESIAN_POINT('Origin',(40.,0.,0.));
#230=CARTESIAN_POINT('',(40.,0.,1000.));
#231=CARTESIAN_POINT('',(40.,0.,1000.));
#232=CARTESIAN_POINT('',(40.,0.,0.));
#233=CARTESIAN_POINT('Origin',(40.,2.,0.));
#234=CARTESIAN_POINT('',(40.,2.,1000.));
#235=CARTESIAN_POINT('Origin',(0.,0.,0.));
#236=CARTESIAN_POINT('',(0.,0.,1000.));
#237=CARTESIAN_POINT('Origin',(20.,1.,1000.));
#238=UNCERTAINTY_MEASURE_WITH_UNIT(LENGTH_MEASURE(0.01),#242,
'DISTANCE_ACCURACY_VALUE',
'Maximum model space distance between geometric entities at asserted c
onnectivities');
#239=UNCERTAINTY_MEASURE_WITH_UNIT(LENGTH_MEASURE(1.E-6),#242,
'DISTANCE_ACCURACY_VALUE',
'Maximum model space distance between geometric entities at asserted c
onnectivities');
#240=(
GEOMETRIC_REPRESENTATION_CONTEXT(3)
GLOBAL_UNCERTAINTY_ASSIGNED_CONTEXT((#238))
GLOBAL_UNIT_ASSIGNED_CONTEXT((#242,#245,#243))
REPRESENTATION_CONTEXT('','3D')
);
#241=(
GEOMETRIC_REPRESENTATION_CONTEXT(3)
GLOBAL_UNCERTAINTY_ASSIGNED_CONTEXT((#239))
GLOBAL_UNIT_ASSIGNED_CONTEXT((#242,#245,#243))
REPRESENTATION_CONTEXT('','3D')
);
#242=(
LENGTH_UNIT()
NAMED_UNIT(*)
SI_UNIT(.MILLI.,.METRE.)
);
#243=(
NAMED_UNIT(*)
SI_UNIT($,.STERADIAN.)
SOLID_ANGLE_UNIT()
);
#244=DIMENSIONAL_EXPONENTS(0.,0.,0.,0.,0.,0.,0.);
#245=(
CONVERSION_BASED_UNIT('degree',#247)
NAMED_UNIT(#244)
PLANE_ANGLE_UNIT()
);
#246=(
NAMED_UNIT(*)
PLANE_ANGLE_UNIT()
SI_UNIT($,.RADIAN.)
);
#247=PLANE_ANGLE_MEASURE_WITH_UNIT(PLANE_ANGLE_MEASURE(0.01745329252),#246);
#248=SHAPE_DEFINITION_REPRESENTATION(#249,#250);
#249=PRODUCT_DEFINITION_SHAPE('',$,#252);
#250=SHAPE_REPRESENTATION('',(#146),#240);
#251=DESIGN_CONTEXT('part definition',#256,'design');
#252=PRODUCT_DEFINITION(
'55000_KriTec_Aluminium_Flachprofil_M_40x2_E_silber_eloxiert',
'55000_KriTec_Aluminium_Flachprofil_M_40x2_E_silber_eloxiert',#253,#251);
#253=PRODUCT_DEFINITION_FORMATION('','00',#258);
#254=PRODUCT_RELATED_PRODUCT_CATEGORY(
'55000_KriTec_Aluminium_Flachprofil_M_40x2_E_silber_eloxiert',
'55000_KriTec_Aluminium_Flachprofil_M_40x2_E_silber_eloxiert',(#258));
#255=APPLICATION_PROTOCOL_DEFINITION('international standard',
'ap203_configuration_controlled_3d_design_of_mechanical_parts_and_asse
mblies_mim_lf',2004,#256);
#256=APPLICATION_CONTEXT(
'Configuration Controlled 3D Design of Mechanical Parts and Assemblies');
#257=MECHANICAL_CONTEXT('part definition',#256,'mechanical');
#258=PRODUCT(
'55000_KriTec_Aluminium_Flachprofil_M_40x2_E_silber_eloxiert',
'55000_KriTec_Aluminium_Flachprofil_M_40x2_E_silber_eloxiert',$,(#257));
#259=PRESENTATION_STYLE_ASSIGNMENT((#260));
#260=SURFACE_STYLE_USAGE(.BOTH.,#261);
#261=SURFACE_SIDE_STYLE('',(#262));
#262=SURFACE_STYLE_FILL_AREA(#263);
#263=FILL_AREA_STYLE('',(#264));
#264=FILL_AREA_STYLE_COLOUR('',#265);
#265=COLOUR_RGB('',0.956862745098039,0.956862745098039,0.956862745098039);
ENDSEC;
END-ISO-10303-21;
