ISO-10303-21;
HEADER;
/* Generated by software containing ST-Developer
 * from STEP Tools, Inc. (www.steptools.com) 
 */

FILE_DESCRIPTION(
/* description */ (''),
/* implementation_level */ '2;1');

FILE_NAME(
/* name */ 
'S:\\Bilder_neu\\52307_KriTec_Aluminium-Rundstange_40mm\\Inventordatei
en\\52307_KriTec_Aluminium-Rundstange_40mm.stp',
/* time_stamp */ '2014-10-07T14:15:19+02:00',
/* author */ ('kostic'),
/* organization */ (''),
/* preprocessor_version */ 'ST-DEVELOPER v15.2',
/* originating_system */ 'Autodesk Inventor 2014',
/* authorisation */ '');

FILE_SCHEMA (('AUTOMOTIVE_DESIGN { 1 0 10303 214 3 1 1 }'));
ENDSEC;

DATA;
#10=SHAPE_REPRESENTATION_RELATIONSHIP('SRR','None',#75,#11);
#11=ADVANCED_BREP_SHAPE_REPRESENTATION($,(#38),#66);
#12=STYLED_ITEM($,(#83),#38);
#13=PLANE($,#43);
#14=PLANE($,#44);
#15=FACE_BOUND($,#20,.T.);
#16=FACE_OUTER_BOUND($,#19,.T.);
#17=FACE_OUTER_BOUND($,#21,.T.);
#18=FACE_OUTER_BOUND($,#22,.T.);
#19=EDGE_LOOP($,(#29));
#20=EDGE_LOOP($,(#30));
#21=EDGE_LOOP($,(#31));
#22=EDGE_LOOP($,(#32));
#23=CIRCLE($,#41,20.);
#24=CIRCLE($,#42,20.);
#25=VERTEX_POINT($,#59);
#26=VERTEX_POINT($,#61);
#27=EDGE_CURVE($,#25,#25,#23,.T.);
#28=EDGE_CURVE($,#26,#26,#24,.T.);
#29=ORIENTED_EDGE($,*,*,#27,.F.);
#30=ORIENTED_EDGE($,*,*,#28,.F.);
#31=ORIENTED_EDGE($,*,*,#28,.T.);
#32=ORIENTED_EDGE($,*,*,#27,.T.);
#33=CYLINDRICAL_SURFACE($,#40,20.);
#34=ADVANCED_FACE($,(#16,#15),#33,.T.);
#35=ADVANCED_FACE($,(#17),#13,.F.);
#36=ADVANCED_FACE($,(#18),#14,.T.);
#37=CLOSED_SHELL($,(#34,#35,#36));
#38=MANIFOLD_SOLID_BREP('Volumenk\X\F6rper4',#37);
#39=AXIS2_PLACEMENT_3D('placement',#57,#45,#46);
#40=AXIS2_PLACEMENT_3D($,#58,#47,#48);
#41=AXIS2_PLACEMENT_3D($,#60,#49,#50);
#42=AXIS2_PLACEMENT_3D($,#62,#51,#52);
#43=AXIS2_PLACEMENT_3D($,#63,#53,#54);
#44=AXIS2_PLACEMENT_3D($,#64,#55,#56);
#45=DIRECTION('axis',(0.,0.,1.));
#46=DIRECTION('refdir',(1.,0.,0.));
#47=DIRECTION('center_axis',(0.,0.,1.));
#48=DIRECTION('ref_axis',(-1.,0.,0.));
#49=DIRECTION('center_axis',(0.,0.,1.));
#50=DIRECTION('ref_axis',(-1.,0.,0.));
#51=DIRECTION('center_axis',(0.,0.,-1.));
#52=DIRECTION('ref_axis',(-1.,0.,0.));
#53=DIRECTION('center_axis',(0.,0.,1.));
#54=DIRECTION('ref_axis',(1.,0.,0.));
#55=DIRECTION('center_axis',(0.,0.,1.));
#56=DIRECTION('ref_axis',(1.,0.,0.));
#57=CARTESIAN_POINT('',(0.,0.,0.));
#58=CARTESIAN_POINT('Origin',(0.,0.,0.));
#59=CARTESIAN_POINT('',(20.,2.44929359829471E-015,1000.));
#60=CARTESIAN_POINT('Origin',(0.,0.,1000.));
#61=CARTESIAN_POINT('',(20.,2.44929359829471E-015,0.));
#62=CARTESIAN_POINT('Origin',(0.,0.,0.));
#63=CARTESIAN_POINT('Origin',(-9.4425648294133E-016,3.70074341541719E-016,
0.));
#64=CARTESIAN_POINT('Origin',(-9.4425648294133E-016,3.70074341541719E-016,
1000.));
#65=UNCERTAINTY_MEASURE_WITH_UNIT(LENGTH_MEASURE(0.01),#67,
'DISTANCE_ACCURACY_VALUE',
'Maximum model space distance between geometric entities at asserted c
onnectivities');
#66=(
GEOMETRIC_REPRESENTATION_CONTEXT(3)
GLOBAL_UNCERTAINTY_ASSIGNED_CONTEXT((#65))
GLOBAL_UNIT_ASSIGNED_CONTEXT((#67,#70,#68))
REPRESENTATION_CONTEXT('','3D')
);
#67=(
LENGTH_UNIT()
NAMED_UNIT(*)
SI_UNIT(.MILLI.,.METRE.)
);
#68=(
NAMED_UNIT(*)
SI_UNIT($,.STERADIAN.)
SOLID_ANGLE_UNIT()
);
#69=DIMENSIONAL_EXPONENTS(0.,0.,0.,0.,0.,0.,0.);
#70=(
CONVERSION_BASED_UNIT('degree',#72)
NAMED_UNIT(#69)
PLANE_ANGLE_UNIT()
);
#71=(
NAMED_UNIT(*)
PLANE_ANGLE_UNIT()
SI_UNIT($,.RADIAN.)
);
#72=PLANE_ANGLE_MEASURE_WITH_UNIT(PLANE_ANGLE_MEASURE(0.01745329252),#71);
#73=SHAPE_DEFINITION_REPRESENTATION(#74,#75);
#74=PRODUCT_DEFINITION_SHAPE('',$,#77);
#75=SHAPE_REPRESENTATION('',(#39),#66);
#76=PRODUCT_DEFINITION_CONTEXT('3D Mechanical Parts',#80,'design');
#77=PRODUCT_DEFINITION('52307_KriTec_Aluminium-Rundstange_40mm',
'52307_KriTec_Aluminium-Rundstange_40mm',#78,#76);
#78=PRODUCT_DEFINITION_FORMATION('',$,#82);
#79=APPLICATION_PROTOCOL_DEFINITION('international standard',
'automotive_design',2009,#80);
#80=APPLICATION_CONTEXT(
'Core Data for Automotive Mechanical Design Process');
#81=PRODUCT_CONTEXT('3D Mechanical Parts',#80,'mechanical');
#82=PRODUCT('52307_KriTec_Aluminium-Rundstange_40mm',
'52307_KriTec_Aluminium-Rundstange_40mm',$,(#81));
#83=PRESENTATION_STYLE_ASSIGNMENT((#84));
#84=SURFACE_STYLE_USAGE(.BOTH.,#85);
#85=SURFACE_SIDE_STYLE($,(#86));
#86=SURFACE_STYLE_FILL_AREA(#87);
#87=FILL_AREA_STYLE($,(#88));
#88=FILL_AREA_STYLE_COLOUR($,#89);
#89=COLOUR_RGB('',0.956862745098039,0.956862745098039,0.956862745098039);
ENDSEC;
END-ISO-10303-21;
