ISO-10303-21;
HEADER;
/* Generated by software containing ST-Developer
 * from STEP Tools, Inc. (www.steptools.com) 
 */

FILE_DESCRIPTION(
/* description */ (
'KriTec PVC-Tischplattenauflage 2000x800x5mm mit Ausklinkung 81x86'),
/* implementation_level */ '2;1');

FILE_NAME(
/* name */ 
'S:\\CAD\\Projekte 2018\\Teile Bearbeitungsordner\\Standard-Tischplatt
en\\42080_KriTec_PVC-Tischplattenauflage_2000x800x5mm_mit_Ausklinkung_
81x86\\Inventordateien\\42080_KriTec_PVC-Tischplattenauflage_2000x800x
5mm_mit_Ausklinkung_81x86.stp',
/* time_stamp */ '2019-01-28T10:36:13+01:00',
/* author */ ('jendrek'),
/* organization */ (''),
/* preprocessor_version */ 'ST-DEVELOPER v17',
/* originating_system */ 'Autodesk Inventor 2018',
/* authorisation */ '');

FILE_SCHEMA (('AUTOMOTIVE_DESIGN { 1 0 10303 214 3 1 1 }'));
ENDSEC;

DATA;
#10=MECHANICAL_DESIGN_GEOMETRIC_PRESENTATION_REPRESENTATION('',(#13),#601);
#11=SHAPE_REPRESENTATION_RELATIONSHIP('SRR','None',#608,#12);
#12=ADVANCED_BREP_SHAPE_REPRESENTATION('',(#14),#600);
#13=STYLED_ITEM('',(#617),#14);
#14=MANIFOLD_SOLID_BREP('Volumenk\X\F6rper1',#343);
#15=PLANE('',#366);
#16=PLANE('',#367);
#17=PLANE('',#377);
#18=PLANE('',#378);
#19=PLANE('',#386);
#20=PLANE('',#389);
#21=PLANE('',#390);
#22=PLANE('',#392);
#23=PLANE('',#395);
#24=PLANE('',#396);
#25=FACE_OUTER_BOUND('',#43,.T.);
#26=FACE_OUTER_BOUND('',#44,.T.);
#27=FACE_OUTER_BOUND('',#45,.T.);
#28=FACE_OUTER_BOUND('',#46,.T.);
#29=FACE_OUTER_BOUND('',#47,.T.);
#30=FACE_OUTER_BOUND('',#48,.T.);
#31=FACE_OUTER_BOUND('',#49,.T.);
#32=FACE_OUTER_BOUND('',#50,.T.);
#33=FACE_OUTER_BOUND('',#51,.T.);
#34=FACE_OUTER_BOUND('',#52,.T.);
#35=FACE_OUTER_BOUND('',#53,.T.);
#36=FACE_OUTER_BOUND('',#54,.T.);
#37=FACE_OUTER_BOUND('',#55,.T.);
#38=FACE_OUTER_BOUND('',#56,.T.);
#39=FACE_OUTER_BOUND('',#57,.T.);
#40=FACE_OUTER_BOUND('',#58,.T.);
#41=FACE_OUTER_BOUND('',#59,.T.);
#42=FACE_OUTER_BOUND('',#60,.T.);
#43=EDGE_LOOP('',(#221,#222,#223,#224));
#44=EDGE_LOOP('',(#225,#226,#227,#228));
#45=EDGE_LOOP('',(#229,#230,#231,#232,#233,#234,#235,#236,#237,#238,#239,
#240,#241,#242,#243,#244));
#46=EDGE_LOOP('',(#245,#246,#247,#248));
#47=EDGE_LOOP('',(#249,#250,#251,#252));
#48=EDGE_LOOP('',(#253,#254,#255,#256,#257,#258,#259,#260,#261,#262,#263,
#264,#265,#266,#267,#268));
#49=EDGE_LOOP('',(#269,#270,#271,#272));
#50=EDGE_LOOP('',(#273,#274,#275,#276));
#51=EDGE_LOOP('',(#277,#278,#279,#280));
#52=EDGE_LOOP('',(#281,#282,#283,#284));
#53=EDGE_LOOP('',(#285,#286,#287,#288));
#54=EDGE_LOOP('',(#289,#290,#291,#292));
#55=EDGE_LOOP('',(#293,#294,#295,#296));
#56=EDGE_LOOP('',(#297,#298,#299,#300));
#57=EDGE_LOOP('',(#301,#302,#303,#304));
#58=EDGE_LOOP('',(#305,#306,#307,#308));
#59=EDGE_LOOP('',(#309,#310,#311,#312));
#60=EDGE_LOOP('',(#313,#314,#315,#316));
#61=LINE('',#505,#93);
#62=LINE('',#508,#94);
#63=LINE('',#511,#95);
#64=LINE('',#513,#96);
#65=LINE('',#514,#97);
#66=LINE('',#517,#98);
#67=LINE('',#521,#99);
#68=LINE('',#525,#100);
#69=LINE('',#529,#101);
#70=LINE('',#533,#102);
#71=LINE('',#537,#103);
#72=LINE('',#541,#104);
#73=LINE('',#547,#105);
#74=LINE('',#548,#106);
#75=LINE('',#551,#107);
#76=LINE('',#552,#108);
#77=LINE('',#557,#109);
#78=LINE('',#561,#110);
#79=LINE('',#565,#111);
#80=LINE('',#569,#112);
#81=LINE('',#573,#113);
#82=LINE('',#575,#114);
#83=LINE('',#577,#115);
#84=LINE('',#578,#116);
#85=LINE('',#580,#117);
#86=LINE('',#583,#118);
#87=LINE('',#584,#119);
#88=LINE('',#587,#120);
#89=LINE('',#589,#121);
#90=LINE('',#590,#122);
#91=LINE('',#592,#123);
#92=LINE('',#595,#124);
#93=VECTOR('',#403,10.);
#94=VECTOR('',#406,10.);
#95=VECTOR('',#409,10.);
#96=VECTOR('',#410,10.);
#97=VECTOR('',#411,10.);
#98=VECTOR('',#414,10.);
#99=VECTOR('',#417,10.);
#100=VECTOR('',#420,10.);
#101=VECTOR('',#423,10.);
#102=VECTOR('',#426,10.);
#103=VECTOR('',#429,10.);
#104=VECTOR('',#432,10.);
#105=VECTOR('',#439,10.);
#106=VECTOR('',#440,10.);
#107=VECTOR('',#443,10.);
#108=VECTOR('',#444,10.);
#109=VECTOR('',#449,10.);
#110=VECTOR('',#452,10.);
#111=VECTOR('',#455,10.);
#112=VECTOR('',#458,10.);
#113=VECTOR('',#461,10.);
#114=VECTOR('',#464,10.);
#115=VECTOR('',#467,10.);
#116=VECTOR('',#468,10.);
#117=VECTOR('',#471,10.);
#118=VECTOR('',#476,10.);
#119=VECTOR('',#477,10.);
#120=VECTOR('',#482,10.);
#121=VECTOR('',#485,10.);
#122=VECTOR('',#486,10.);
#123=VECTOR('',#489,10.);
#124=VECTOR('',#494,10.);
#125=CIRCLE('',#364,4.);
#126=CIRCLE('',#365,4.);
#127=CIRCLE('',#368,4.);
#128=CIRCLE('',#369,1.99999999999998);
#129=CIRCLE('',#370,4.00000000000002);
#130=CIRCLE('',#371,2.00000000000001);
#131=CIRCLE('',#372,2.00000000000001);
#132=CIRCLE('',#373,4.00000000000002);
#133=CIRCLE('',#374,1.99999999999998);
#134=CIRCLE('',#376,4.);
#135=CIRCLE('',#379,1.99999999999998);
#136=CIRCLE('',#380,4.00000000000002);
#137=CIRCLE('',#381,2.00000000000001);
#138=CIRCLE('',#382,2.00000000000001);
#139=CIRCLE('',#383,4.00000000000002);
#140=CIRCLE('',#384,1.99999999999998);
#141=VERTEX_POINT('',#501);
#142=VERTEX_POINT('',#502);
#143=VERTEX_POINT('',#504);
#144=VERTEX_POINT('',#506);
#145=VERTEX_POINT('',#510);
#146=VERTEX_POINT('',#512);
#147=VERTEX_POINT('',#516);
#148=VERTEX_POINT('',#518);
#149=VERTEX_POINT('',#520);
#150=VERTEX_POINT('',#522);
#151=VERTEX_POINT('',#524);
#152=VERTEX_POINT('',#526);
#153=VERTEX_POINT('',#528);
#154=VERTEX_POINT('',#530);
#155=VERTEX_POINT('',#532);
#156=VERTEX_POINT('',#534);
#157=VERTEX_POINT('',#536);
#158=VERTEX_POINT('',#538);
#159=VERTEX_POINT('',#540);
#160=VERTEX_POINT('',#544);
#161=VERTEX_POINT('',#545);
#162=VERTEX_POINT('',#550);
#163=VERTEX_POINT('',#554);
#164=VERTEX_POINT('',#556);
#165=VERTEX_POINT('',#558);
#166=VERTEX_POINT('',#560);
#167=VERTEX_POINT('',#562);
#168=VERTEX_POINT('',#564);
#169=VERTEX_POINT('',#566);
#170=VERTEX_POINT('',#568);
#171=VERTEX_POINT('',#570);
#172=VERTEX_POINT('',#572);
#173=EDGE_CURVE('',#141,#142,#125,.T.);
#174=EDGE_CURVE('',#142,#143,#61,.T.);
#175=EDGE_CURVE('',#143,#144,#126,.T.);
#176=EDGE_CURVE('',#144,#141,#62,.T.);
#177=EDGE_CURVE('',#144,#145,#63,.T.);
#178=EDGE_CURVE('',#145,#146,#64,.T.);
#179=EDGE_CURVE('',#141,#146,#65,.T.);
#180=EDGE_CURVE('',#147,#143,#66,.T.);
#181=EDGE_CURVE('',#148,#147,#127,.T.);
#182=EDGE_CURVE('',#149,#148,#67,.T.);
#183=EDGE_CURVE('',#149,#150,#128,.T.);
#184=EDGE_CURVE('',#150,#151,#68,.T.);
#185=EDGE_CURVE('',#151,#152,#129,.T.);
#186=EDGE_CURVE('',#152,#153,#69,.T.);
#187=EDGE_CURVE('',#153,#154,#130,.T.);
#188=EDGE_CURVE('',#155,#154,#70,.T.);
#189=EDGE_CURVE('',#155,#156,#131,.T.);
#190=EDGE_CURVE('',#156,#157,#71,.T.);
#191=EDGE_CURVE('',#157,#158,#132,.T.);
#192=EDGE_CURVE('',#158,#159,#72,.T.);
#193=EDGE_CURVE('',#159,#145,#133,.T.);
#194=EDGE_CURVE('',#160,#161,#134,.T.);
#195=EDGE_CURVE('',#161,#148,#73,.T.);
#196=EDGE_CURVE('',#147,#160,#74,.T.);
#197=EDGE_CURVE('',#162,#161,#75,.T.);
#198=EDGE_CURVE('',#162,#149,#76,.T.);
#199=EDGE_CURVE('',#146,#163,#135,.T.);
#200=EDGE_CURVE('',#163,#164,#77,.T.);
#201=EDGE_CURVE('',#164,#165,#136,.T.);
#202=EDGE_CURVE('',#165,#166,#78,.T.);
#203=EDGE_CURVE('',#166,#167,#137,.T.);
#204=EDGE_CURVE('',#167,#168,#79,.T.);
#205=EDGE_CURVE('',#168,#169,#138,.T.);
#206=EDGE_CURVE('',#169,#170,#80,.T.);
#207=EDGE_CURVE('',#170,#171,#139,.T.);
#208=EDGE_CURVE('',#171,#172,#81,.T.);
#209=EDGE_CURVE('',#172,#162,#140,.T.);
#210=EDGE_CURVE('',#160,#142,#82,.T.);
#211=EDGE_CURVE('',#171,#151,#83,.T.);
#212=EDGE_CURVE('',#170,#152,#84,.T.);
#213=EDGE_CURVE('',#172,#150,#85,.T.);
#214=EDGE_CURVE('',#169,#153,#86,.T.);
#215=EDGE_CURVE('',#168,#154,#87,.T.);
#216=EDGE_CURVE('',#155,#167,#88,.T.);
#217=EDGE_CURVE('',#165,#157,#89,.T.);
#218=EDGE_CURVE('',#164,#158,#90,.T.);
#219=EDGE_CURVE('',#163,#159,#91,.T.);
#220=EDGE_CURVE('',#166,#156,#92,.T.);
#221=ORIENTED_EDGE('',*,*,#173,.T.);
#222=ORIENTED_EDGE('',*,*,#174,.T.);
#223=ORIENTED_EDGE('',*,*,#175,.T.);
#224=ORIENTED_EDGE('',*,*,#176,.T.);
#225=ORIENTED_EDGE('',*,*,#176,.F.);
#226=ORIENTED_EDGE('',*,*,#177,.T.);
#227=ORIENTED_EDGE('',*,*,#178,.T.);
#228=ORIENTED_EDGE('',*,*,#179,.F.);
#229=ORIENTED_EDGE('',*,*,#175,.F.);
#230=ORIENTED_EDGE('',*,*,#180,.F.);
#231=ORIENTED_EDGE('',*,*,#181,.F.);
#232=ORIENTED_EDGE('',*,*,#182,.F.);
#233=ORIENTED_EDGE('',*,*,#183,.T.);
#234=ORIENTED_EDGE('',*,*,#184,.T.);
#235=ORIENTED_EDGE('',*,*,#185,.T.);
#236=ORIENTED_EDGE('',*,*,#186,.T.);
#237=ORIENTED_EDGE('',*,*,#187,.T.);
#238=ORIENTED_EDGE('',*,*,#188,.F.);
#239=ORIENTED_EDGE('',*,*,#189,.T.);
#240=ORIENTED_EDGE('',*,*,#190,.T.);
#241=ORIENTED_EDGE('',*,*,#191,.T.);
#242=ORIENTED_EDGE('',*,*,#192,.T.);
#243=ORIENTED_EDGE('',*,*,#193,.T.);
#244=ORIENTED_EDGE('',*,*,#177,.F.);
#245=ORIENTED_EDGE('',*,*,#194,.T.);
#246=ORIENTED_EDGE('',*,*,#195,.T.);
#247=ORIENTED_EDGE('',*,*,#181,.T.);
#248=ORIENTED_EDGE('',*,*,#196,.T.);
#249=ORIENTED_EDGE('',*,*,#195,.F.);
#250=ORIENTED_EDGE('',*,*,#197,.F.);
#251=ORIENTED_EDGE('',*,*,#198,.T.);
#252=ORIENTED_EDGE('',*,*,#182,.T.);
#253=ORIENTED_EDGE('',*,*,#173,.F.);
#254=ORIENTED_EDGE('',*,*,#179,.T.);
#255=ORIENTED_EDGE('',*,*,#199,.T.);
#256=ORIENTED_EDGE('',*,*,#200,.T.);
#257=ORIENTED_EDGE('',*,*,#201,.T.);
#258=ORIENTED_EDGE('',*,*,#202,.T.);
#259=ORIENTED_EDGE('',*,*,#203,.T.);
#260=ORIENTED_EDGE('',*,*,#204,.T.);
#261=ORIENTED_EDGE('',*,*,#205,.T.);
#262=ORIENTED_EDGE('',*,*,#206,.T.);
#263=ORIENTED_EDGE('',*,*,#207,.T.);
#264=ORIENTED_EDGE('',*,*,#208,.T.);
#265=ORIENTED_EDGE('',*,*,#209,.T.);
#266=ORIENTED_EDGE('',*,*,#197,.T.);
#267=ORIENTED_EDGE('',*,*,#194,.F.);
#268=ORIENTED_EDGE('',*,*,#210,.T.);
#269=ORIENTED_EDGE('',*,*,#185,.F.);
#270=ORIENTED_EDGE('',*,*,#211,.F.);
#271=ORIENTED_EDGE('',*,*,#207,.F.);
#272=ORIENTED_EDGE('',*,*,#212,.T.);
#273=ORIENTED_EDGE('',*,*,#184,.F.);
#274=ORIENTED_EDGE('',*,*,#213,.F.);
#275=ORIENTED_EDGE('',*,*,#208,.F.);
#276=ORIENTED_EDGE('',*,*,#211,.T.);
#277=ORIENTED_EDGE('',*,*,#183,.F.);
#278=ORIENTED_EDGE('',*,*,#198,.F.);
#279=ORIENTED_EDGE('',*,*,#209,.F.);
#280=ORIENTED_EDGE('',*,*,#213,.T.);
#281=ORIENTED_EDGE('',*,*,#187,.F.);
#282=ORIENTED_EDGE('',*,*,#214,.F.);
#283=ORIENTED_EDGE('',*,*,#205,.F.);
#284=ORIENTED_EDGE('',*,*,#215,.T.);
#285=ORIENTED_EDGE('',*,*,#186,.F.);
#286=ORIENTED_EDGE('',*,*,#212,.F.);
#287=ORIENTED_EDGE('',*,*,#206,.F.);
#288=ORIENTED_EDGE('',*,*,#214,.T.);
#289=ORIENTED_EDGE('',*,*,#215,.F.);
#290=ORIENTED_EDGE('',*,*,#204,.F.);
#291=ORIENTED_EDGE('',*,*,#216,.F.);
#292=ORIENTED_EDGE('',*,*,#188,.T.);
#293=ORIENTED_EDGE('',*,*,#191,.F.);
#294=ORIENTED_EDGE('',*,*,#217,.F.);
#295=ORIENTED_EDGE('',*,*,#201,.F.);
#296=ORIENTED_EDGE('',*,*,#218,.T.);
#297=ORIENTED_EDGE('',*,*,#192,.F.);
#298=ORIENTED_EDGE('',*,*,#218,.F.);
#299=ORIENTED_EDGE('',*,*,#200,.F.);
#300=ORIENTED_EDGE('',*,*,#219,.T.);
#301=ORIENTED_EDGE('',*,*,#193,.F.);
#302=ORIENTED_EDGE('',*,*,#219,.F.);
#303=ORIENTED_EDGE('',*,*,#199,.F.);
#304=ORIENTED_EDGE('',*,*,#178,.F.);
#305=ORIENTED_EDGE('',*,*,#189,.F.);
#306=ORIENTED_EDGE('',*,*,#216,.T.);
#307=ORIENTED_EDGE('',*,*,#203,.F.);
#308=ORIENTED_EDGE('',*,*,#220,.T.);
#309=ORIENTED_EDGE('',*,*,#190,.F.);
#310=ORIENTED_EDGE('',*,*,#220,.F.);
#311=ORIENTED_EDGE('',*,*,#202,.F.);
#312=ORIENTED_EDGE('',*,*,#217,.T.);
#313=ORIENTED_EDGE('',*,*,#174,.F.);
#314=ORIENTED_EDGE('',*,*,#210,.F.);
#315=ORIENTED_EDGE('',*,*,#196,.F.);
#316=ORIENTED_EDGE('',*,*,#180,.T.);
#317=CYLINDRICAL_SURFACE('',#363,4.);
#318=CYLINDRICAL_SURFACE('',#375,4.);
#319=CYLINDRICAL_SURFACE('',#385,4.00000000000002);
#320=CYLINDRICAL_SURFACE('',#387,1.99999999999998);
#321=CYLINDRICAL_SURFACE('',#388,2.00000000000001);
#322=CYLINDRICAL_SURFACE('',#391,4.00000000000002);
#323=CYLINDRICAL_SURFACE('',#393,1.99999999999998);
#324=CYLINDRICAL_SURFACE('',#394,2.00000000000001);
#325=ADVANCED_FACE('',(#25),#317,.T.);
#326=ADVANCED_FACE('',(#26),#15,.T.);
#327=ADVANCED_FACE('',(#27),#16,.F.);
#328=ADVANCED_FACE('',(#28),#318,.T.);
#329=ADVANCED_FACE('',(#29),#17,.T.);
#330=ADVANCED_FACE('',(#30),#18,.T.);
#331=ADVANCED_FACE('',(#31),#319,.F.);
#332=ADVANCED_FACE('',(#32),#19,.T.);
#333=ADVANCED_FACE('',(#33),#320,.T.);
#334=ADVANCED_FACE('',(#34),#321,.T.);
#335=ADVANCED_FACE('',(#35),#20,.T.);
#336=ADVANCED_FACE('',(#36),#21,.T.);
#337=ADVANCED_FACE('',(#37),#322,.F.);
#338=ADVANCED_FACE('',(#38),#22,.F.);
#339=ADVANCED_FACE('',(#39),#323,.T.);
#340=ADVANCED_FACE('',(#40),#324,.T.);
#341=ADVANCED_FACE('',(#41),#23,.F.);
#342=ADVANCED_FACE('',(#42),#24,.T.);
#343=CLOSED_SHELL('',(#325,#326,#327,#328,#329,#330,#331,#332,#333,#334,
#335,#336,#337,#338,#339,#340,#341,#342));
#344=DERIVED_UNIT_ELEMENT(#346,1.);
#345=DERIVED_UNIT_ELEMENT(#603,3.);
#346=(
MASS_UNIT()
NAMED_UNIT(*)
SI_UNIT($,.GRAM.)
);
#347=DERIVED_UNIT((#344,#345));
#348=MEASURE_REPRESENTATION_ITEM('density measure',
POSITIVE_RATIO_MEASURE(1.37),#347);
#349=PROPERTY_DEFINITION_REPRESENTATION(#354,#351);
#350=PROPERTY_DEFINITION_REPRESENTATION(#355,#352);
#351=REPRESENTATION('material name',(#353),#600);
#352=REPRESENTATION('density',(#348),#600);
#353=DESCRIPTIVE_REPRESENTATION_ITEM('Kst - PVC (hart/transparent)',
'Kst - PVC (hart/transparent)');
#354=PROPERTY_DEFINITION('material property','material name',#610);
#355=PROPERTY_DEFINITION('material property','density of part',#610);
#356=DATE_TIME_ROLE('creation_date');
#357=APPLIED_DATE_AND_TIME_ASSIGNMENT(#358,#356,(#610));
#358=DATE_AND_TIME(#359,#360);
#359=CALENDAR_DATE(2018,27,11);
#360=LOCAL_TIME(12,41,30.,#361);
#361=COORDINATED_UNIVERSAL_TIME_OFFSET(0,0,.BEHIND.);
#362=AXIS2_PLACEMENT_3D('placement',#499,#397,#398);
#363=AXIS2_PLACEMENT_3D('',#500,#399,#400);
#364=AXIS2_PLACEMENT_3D('',#503,#401,#402);
#365=AXIS2_PLACEMENT_3D('',#507,#404,#405);
#366=AXIS2_PLACEMENT_3D('',#509,#407,#408);
#367=AXIS2_PLACEMENT_3D('',#515,#412,#413);
#368=AXIS2_PLACEMENT_3D('',#519,#415,#416);
#369=AXIS2_PLACEMENT_3D('',#523,#418,#419);
#370=AXIS2_PLACEMENT_3D('',#527,#421,#422);
#371=AXIS2_PLACEMENT_3D('',#531,#424,#425);
#372=AXIS2_PLACEMENT_3D('',#535,#427,#428);
#373=AXIS2_PLACEMENT_3D('',#539,#430,#431);
#374=AXIS2_PLACEMENT_3D('',#542,#433,#434);
#375=AXIS2_PLACEMENT_3D('',#543,#435,#436);
#376=AXIS2_PLACEMENT_3D('',#546,#437,#438);
#377=AXIS2_PLACEMENT_3D('',#549,#441,#442);
#378=AXIS2_PLACEMENT_3D('',#553,#445,#446);
#379=AXIS2_PLACEMENT_3D('',#555,#447,#448);
#380=AXIS2_PLACEMENT_3D('',#559,#450,#451);
#381=AXIS2_PLACEMENT_3D('',#563,#453,#454);
#382=AXIS2_PLACEMENT_3D('',#567,#456,#457);
#383=AXIS2_PLACEMENT_3D('',#571,#459,#460);
#384=AXIS2_PLACEMENT_3D('',#574,#462,#463);
#385=AXIS2_PLACEMENT_3D('',#576,#465,#466);
#386=AXIS2_PLACEMENT_3D('',#579,#469,#470);
#387=AXIS2_PLACEMENT_3D('',#581,#472,#473);
#388=AXIS2_PLACEMENT_3D('',#582,#474,#475);
#389=AXIS2_PLACEMENT_3D('',#585,#478,#479);
#390=AXIS2_PLACEMENT_3D('',#586,#480,#481);
#391=AXIS2_PLACEMENT_3D('',#588,#483,#484);
#392=AXIS2_PLACEMENT_3D('',#591,#487,#488);
#393=AXIS2_PLACEMENT_3D('',#593,#490,#491);
#394=AXIS2_PLACEMENT_3D('',#594,#492,#493);
#395=AXIS2_PLACEMENT_3D('',#596,#495,#496);
#396=AXIS2_PLACEMENT_3D('',#597,#497,#498);
#397=DIRECTION('axis',(0.,0.,1.));
#398=DIRECTION('refdir',(1.,0.,0.));
#399=DIRECTION('center_axis',(0.,0.,1.));
#400=DIRECTION('ref_axis',(-0.70710678118656,0.707106781186535,0.));
#401=DIRECTION('center_axis',(0.,0.,-1.));
#402=DIRECTION('ref_axis',(-0.70710678118656,0.707106781186535,0.));
#403=DIRECTION('',(0.,0.,-1.));
#404=DIRECTION('center_axis',(0.,0.,1.));
#405=DIRECTION('ref_axis',(-0.70710678118656,0.707106781186535,0.));
#406=DIRECTION('',(0.,0.,1.));
#407=DIRECTION('center_axis',(-1.,-1.77635683940025E-16,0.));
#408=DIRECTION('ref_axis',(1.77635683940025E-16,-1.,0.));
#409=DIRECTION('',(1.77635683940025E-16,-1.,0.));
#410=DIRECTION('',(0.,0.,1.));
#411=DIRECTION('',(1.77635683940025E-16,-1.,0.));
#412=DIRECTION('center_axis',(0.,0.,1.));
#413=DIRECTION('ref_axis',(1.,0.,0.));
#414=DIRECTION('',(-1.,-1.4210854715202E-16,0.));
#415=DIRECTION('center_axis',(0.,0.,1.));
#416=DIRECTION('ref_axis',(0.707106781186548,0.707106781186548,0.));
#417=DIRECTION('',(0.,1.,0.));
#418=DIRECTION('center_axis',(0.,0.,-1.));
#419=DIRECTION('ref_axis',(-1.,0.,0.));
#420=DIRECTION('',(-1.,-4.44089209850063E-16,0.));
#421=DIRECTION('center_axis',(0.,0.,1.));
#422=DIRECTION('ref_axis',(-1.,0.,0.));
#423=DIRECTION('',(0.,-1.,0.));
#424=DIRECTION('center_axis',(0.,0.,-1.));
#425=DIRECTION('ref_axis',(-1.,0.,0.));
#426=DIRECTION('',(1.,2.8421709430404E-16,0.));
#427=DIRECTION('center_axis',(0.,0.,-1.));
#428=DIRECTION('ref_axis',(1.,0.,0.));
#429=DIRECTION('',(0.,1.,0.));
#430=DIRECTION('center_axis',(0.,0.,1.));
#431=DIRECTION('ref_axis',(1.,0.,0.));
#432=DIRECTION('',(-1.,4.44089209850063E-16,0.));
#433=DIRECTION('center_axis',(0.,0.,-1.));
#434=DIRECTION('ref_axis',(1.,0.,0.));
#435=DIRECTION('center_axis',(0.,0.,1.));
#436=DIRECTION('ref_axis',(0.707106781186548,0.707106781186548,0.));
#437=DIRECTION('center_axis',(0.,0.,-1.));
#438=DIRECTION('ref_axis',(0.707106781186548,0.707106781186548,0.));
#439=DIRECTION('',(0.,0.,-1.));
#440=DIRECTION('',(0.,0.,1.));
#441=DIRECTION('center_axis',(1.,0.,0.));
#442=DIRECTION('ref_axis',(0.,1.,0.));
#443=DIRECTION('',(0.,1.,0.));
#444=DIRECTION('',(0.,0.,-1.));
#445=DIRECTION('center_axis',(0.,0.,1.));
#446=DIRECTION('ref_axis',(1.,0.,0.));
#447=DIRECTION('center_axis',(0.,0.,1.));
#448=DIRECTION('ref_axis',(1.,0.,0.));
#449=DIRECTION('',(1.,-4.44089209850063E-16,0.));
#450=DIRECTION('center_axis',(0.,0.,-1.));
#451=DIRECTION('ref_axis',(1.,0.,0.));
#452=DIRECTION('',(0.,-1.,0.));
#453=DIRECTION('center_axis',(0.,0.,1.));
#454=DIRECTION('ref_axis',(1.,0.,0.));
#455=DIRECTION('',(1.,2.8421709430404E-16,0.));
#456=DIRECTION('center_axis',(0.,0.,1.));
#457=DIRECTION('ref_axis',(-1.,0.,0.));
#458=DIRECTION('',(0.,1.,0.));
#459=DIRECTION('center_axis',(0.,0.,-1.));
#460=DIRECTION('ref_axis',(-1.,0.,0.));
#461=DIRECTION('',(1.,4.44089209850063E-16,0.));
#462=DIRECTION('center_axis',(0.,0.,1.));
#463=DIRECTION('ref_axis',(-1.,0.,0.));
#464=DIRECTION('',(-1.,-1.4210854715202E-16,0.));
#465=DIRECTION('center_axis',(0.,0.,1.));
#466=DIRECTION('ref_axis',(-1.,0.,0.));
#467=DIRECTION('',(0.,0.,-1.));
#468=DIRECTION('',(0.,0.,-1.));
#469=DIRECTION('center_axis',(4.44089209850063E-16,-1.,0.));
#470=DIRECTION('ref_axis',(-1.,-4.44089209850063E-16,0.));
#471=DIRECTION('',(0.,0.,-1.));
#472=DIRECTION('center_axis',(0.,0.,1.));
#473=DIRECTION('ref_axis',(-1.,0.,0.));
#474=DIRECTION('center_axis',(0.,0.,1.));
#475=DIRECTION('ref_axis',(-1.,0.,0.));
#476=DIRECTION('',(0.,0.,-1.));
#477=DIRECTION('',(0.,0.,-1.));
#478=DIRECTION('center_axis',(1.,0.,0.));
#479=DIRECTION('ref_axis',(0.,-1.,0.));
#480=DIRECTION('center_axis',(2.8421709430404E-16,-1.,0.));
#481=DIRECTION('ref_axis',(1.,2.8421709430404E-16,0.));
#482=DIRECTION('',(0.,0.,1.));
#483=DIRECTION('center_axis',(0.,0.,-1.));
#484=DIRECTION('ref_axis',(1.,0.,0.));
#485=DIRECTION('',(0.,0.,-1.));
#486=DIRECTION('',(0.,0.,-1.));
#487=DIRECTION('center_axis',(4.44089209850063E-16,1.,0.));
#488=DIRECTION('ref_axis',(1.,-4.44089209850063E-16,0.));
#489=DIRECTION('',(0.,0.,-1.));
#490=DIRECTION('center_axis',(0.,0.,-1.));
#491=DIRECTION('ref_axis',(1.,0.,0.));
#492=DIRECTION('center_axis',(0.,0.,-1.));
#493=DIRECTION('ref_axis',(1.,0.,0.));
#494=DIRECTION('',(0.,0.,-1.));
#495=DIRECTION('center_axis',(1.,0.,0.));
#496=DIRECTION('ref_axis',(0.,-1.,0.));
#497=DIRECTION('center_axis',(-1.4210854715202E-16,1.,0.));
#498=DIRECTION('ref_axis',(-1.,-1.4210854715202E-16,0.));
#499=CARTESIAN_POINT('',(0.,0.,0.));
#500=CARTESIAN_POINT('Origin',(-996.,396.,0.));
#501=CARTESIAN_POINT('',(-1000.,396.,5.));
#502=CARTESIAN_POINT('',(-996.,400.,5.));
#503=CARTESIAN_POINT('Origin',(-996.,396.,5.));
#504=CARTESIAN_POINT('',(-996.,400.,0.));
#505=CARTESIAN_POINT('',(-996.,400.,0.));
#506=CARTESIAN_POINT('',(-1000.,396.,0.));
#507=CARTESIAN_POINT('Origin',(-996.,396.,0.));
#508=CARTESIAN_POINT('',(-1000.,396.,0.));
#509=CARTESIAN_POINT('Origin',(-1000.,400.,0.));
#510=CARTESIAN_POINT('',(-1000.,-317.,0.));
#511=CARTESIAN_POINT('',(-1000.,400.,0.));
#512=CARTESIAN_POINT('',(-1000.,-317.,5.));
#513=CARTESIAN_POINT('',(-1000.,-317.,5.));
#514=CARTESIAN_POINT('',(-1000.,400.,5.));
#515=CARTESIAN_POINT('Origin',(-2.43614652260606E-13,6.49639072694949E-14,
0.));
#516=CARTESIAN_POINT('',(996.,400.,0.));
#517=CARTESIAN_POINT('',(1000.,400.,0.));
#518=CARTESIAN_POINT('',(1000.,396.,0.));
#519=CARTESIAN_POINT('Origin',(996.,396.,0.));
#520=CARTESIAN_POINT('',(1000.,-317.,0.));
#521=CARTESIAN_POINT('',(1000.,-400.,0.));
#522=CARTESIAN_POINT('',(998.,-319.,0.));
#523=CARTESIAN_POINT('Origin',(998.,-317.,0.));
#524=CARTESIAN_POINT('',(918.,-319.,0.));
#525=CARTESIAN_POINT('',(499.,-319.,0.));
#526=CARTESIAN_POINT('',(914.,-323.,0.));
#527=CARTESIAN_POINT('Origin',(918.,-323.,0.));
#528=CARTESIAN_POINT('',(914.,-398.,0.));
#529=CARTESIAN_POINT('',(914.,-161.5,0.));
#530=CARTESIAN_POINT('',(912.,-400.,0.));
#531=CARTESIAN_POINT('Origin',(912.,-398.,0.));
#532=CARTESIAN_POINT('',(-912.,-400.,0.));
#533=CARTESIAN_POINT('',(-1000.,-400.,0.));
#534=CARTESIAN_POINT('',(-914.,-398.,0.));
#535=CARTESIAN_POINT('Origin',(-912.,-398.,0.));
#536=CARTESIAN_POINT('',(-914.,-323.,0.));
#537=CARTESIAN_POINT('',(-914.,-161.5,0.));
#538=CARTESIAN_POINT('',(-918.,-319.,0.));
#539=CARTESIAN_POINT('Origin',(-918.,-323.,0.));
#540=CARTESIAN_POINT('',(-998.,-319.,0.));
#541=CARTESIAN_POINT('',(-499.,-319.,0.));
#542=CARTESIAN_POINT('Origin',(-998.,-317.,0.));
#543=CARTESIAN_POINT('Origin',(996.,396.,0.));
#544=CARTESIAN_POINT('',(996.,400.,5.));
#545=CARTESIAN_POINT('',(1000.,396.,5.));
#546=CARTESIAN_POINT('Origin',(996.,396.,5.));
#547=CARTESIAN_POINT('',(1000.,396.,0.));
#548=CARTESIAN_POINT('',(996.,400.,0.));
#549=CARTESIAN_POINT('Origin',(1000.,-400.,0.));
#550=CARTESIAN_POINT('',(1000.,-317.,5.));
#551=CARTESIAN_POINT('',(1000.,-400.,5.));
#552=CARTESIAN_POINT('',(1000.,-317.,5.));
#553=CARTESIAN_POINT('Origin',(-2.8421709430404E-13,7.105427357601E-14,
5.));
#554=CARTESIAN_POINT('',(-998.,-319.,5.));
#555=CARTESIAN_POINT('Origin',(-998.,-317.,5.));
#556=CARTESIAN_POINT('',(-918.,-319.,5.));
#557=CARTESIAN_POINT('',(-499.,-319.,5.));
#558=CARTESIAN_POINT('',(-914.,-323.,5.));
#559=CARTESIAN_POINT('Origin',(-918.,-323.,5.));
#560=CARTESIAN_POINT('',(-914.,-398.,5.));
#561=CARTESIAN_POINT('',(-914.,-161.5,5.));
#562=CARTESIAN_POINT('',(-912.,-400.,5.));
#563=CARTESIAN_POINT('Origin',(-912.,-398.,5.));
#564=CARTESIAN_POINT('',(912.,-400.,5.));
#565=CARTESIAN_POINT('',(-1000.,-400.,5.));
#566=CARTESIAN_POINT('',(914.,-398.,5.));
#567=CARTESIAN_POINT('Origin',(912.,-398.,5.));
#568=CARTESIAN_POINT('',(914.,-323.,5.));
#569=CARTESIAN_POINT('',(914.,-161.5,5.));
#570=CARTESIAN_POINT('',(918.,-319.,5.));
#571=CARTESIAN_POINT('Origin',(918.,-323.,5.));
#572=CARTESIAN_POINT('',(998.,-319.,5.));
#573=CARTESIAN_POINT('',(499.,-319.,5.));
#574=CARTESIAN_POINT('Origin',(998.,-317.,5.));
#575=CARTESIAN_POINT('',(1000.,400.,5.));
#576=CARTESIAN_POINT('Origin',(918.,-323.,5.));
#577=CARTESIAN_POINT('',(918.,-319.,5.));
#578=CARTESIAN_POINT('',(914.,-323.,5.));
#579=CARTESIAN_POINT('Origin',(998.,-319.,5.));
#580=CARTESIAN_POINT('',(998.,-319.,5.));
#581=CARTESIAN_POINT('Origin',(998.,-317.,5.));
#582=CARTESIAN_POINT('Origin',(912.,-398.,5.));
#583=CARTESIAN_POINT('',(914.,-398.,5.));
#584=CARTESIAN_POINT('',(912.,-400.,5.));
#585=CARTESIAN_POINT('Origin',(914.,-323.,5.));
#586=CARTESIAN_POINT('Origin',(-1000.,-400.,0.));
#587=CARTESIAN_POINT('',(-912.,-400.,5.));
#588=CARTESIAN_POINT('Origin',(-918.,-323.,5.));
#589=CARTESIAN_POINT('',(-914.,-323.,5.));
#590=CARTESIAN_POINT('',(-918.,-319.,5.));
#591=CARTESIAN_POINT('Origin',(-998.,-319.,5.));
#592=CARTESIAN_POINT('',(-998.,-319.,5.));
#593=CARTESIAN_POINT('Origin',(-998.,-317.,5.));
#594=CARTESIAN_POINT('Origin',(-912.,-398.,5.));
#595=CARTESIAN_POINT('',(-914.,-398.,5.));
#596=CARTESIAN_POINT('Origin',(-914.,-323.,5.));
#597=CARTESIAN_POINT('Origin',(1000.,400.,0.));
#598=UNCERTAINTY_MEASURE_WITH_UNIT(LENGTH_MEASURE(0.01),#602,
'DISTANCE_ACCURACY_VALUE',
'Maximum model space distance between geometric entities at asserted c
onnectivities');
#599=UNCERTAINTY_MEASURE_WITH_UNIT(LENGTH_MEASURE(0.01),#602,
'DISTANCE_ACCURACY_VALUE',
'Maximum model space distance between geometric entities at asserted c
onnectivities');
#600=(
GEOMETRIC_REPRESENTATION_CONTEXT(3)
GLOBAL_UNCERTAINTY_ASSIGNED_CONTEXT((#598))
GLOBAL_UNIT_ASSIGNED_CONTEXT((#602,#605,#604))
REPRESENTATION_CONTEXT('','3D')
);
#601=(
GEOMETRIC_REPRESENTATION_CONTEXT(3)
GLOBAL_UNCERTAINTY_ASSIGNED_CONTEXT((#599))
GLOBAL_UNIT_ASSIGNED_CONTEXT((#602,#605,#604))
REPRESENTATION_CONTEXT('','3D')
);
#602=(
LENGTH_UNIT()
NAMED_UNIT(*)
SI_UNIT(.MILLI.,.METRE.)
);
#603=(
LENGTH_UNIT()
NAMED_UNIT(*)
SI_UNIT(.CENTI.,.METRE.)
);
#604=(
NAMED_UNIT(*)
SI_UNIT($,.STERADIAN.)
SOLID_ANGLE_UNIT()
);
#605=(
NAMED_UNIT(*)
PLANE_ANGLE_UNIT()
SI_UNIT($,.RADIAN.)
);
#606=SHAPE_DEFINITION_REPRESENTATION(#607,#608);
#607=PRODUCT_DEFINITION_SHAPE('',$,#610);
#608=SHAPE_REPRESENTATION('',(#362),#600);
#609=PRODUCT_DEFINITION_CONTEXT('part definition',#614,'design');
#610=PRODUCT_DEFINITION('42080',
'42080_KriTec_PVC-Tischplattenauflage_2000x800x5mm_mit_Ausklinkung_81x
86',#611,#609);
#611=PRODUCT_DEFINITION_FORMATION('',$,#616);
#612=PRODUCT_RELATED_PRODUCT_CATEGORY(
'42080_KriTec_PVC-Tischplattenauflage_2000x800x5mm_mit_Ausklinkung_81x
86',
'42080_KriTec_PVC-Tischplattenauflage_2000x800x5mm_mit_Ausklinkung_81x
86',(#616));
#613=APPLICATION_PROTOCOL_DEFINITION('international standard',
'automotive_design',2009,#614);
#614=APPLICATION_CONTEXT(
'Core Data for Automotive Mechanical Design Process');
#615=PRODUCT_CONTEXT('part definition',#614,'mechanical');
#616=PRODUCT('42080',
'42080_KriTec_PVC-Tischplattenauflage_2000x800x5mm_mit_Ausklinkung_81x
86','KriTec PVC-Tischplattenauflage 2000x800x5mm mit Ausklinkung 81x86',
(#615));
#617=PRESENTATION_STYLE_ASSIGNMENT((#618));
#618=SURFACE_STYLE_USAGE(.BOTH.,#619);
#619=SURFACE_SIDE_STYLE('',(#620));
#620=SURFACE_STYLE_FILL_AREA(#621);
#621=FILL_AREA_STYLE('',(#622));
#622=FILL_AREA_STYLE_COLOUR('',#623);
#623=COLOUR_RGB('',0.00392156862745098,0.243137254901961,0.945098039215686);
ENDSEC;
END-ISO-10303-21;
