ISO-10303-21;
HEADER;
/* Generated by software containing ST-Developer
 * from STEP Tools, Inc. (www.steptools.com) 
 */

FILE_DESCRIPTION(
/* description */ ('KriTec T-Nutenstein 8 St M6, verzinkt'),
/* implementation_level */ '2;1');

FILE_NAME(
/* name */ 
'C:\\Arbeitsordner\\Designs\\Kuhlemann\\neuteile\\22906\\22906_KriTec_
T-Nutenstein_8_St_M6_verzinkt.stp',
/* time_stamp */ '2021-06-15T11:01:34+02:00',
/* author */ ('Nell'),
/* organization */ (''),
/* preprocessor_version */ 'ST-DEVELOPER v17',
/* originating_system */ 'Autodesk Inventor 2018',
/* authorisation */ '');

FILE_SCHEMA (('AUTOMOTIVE_DESIGN { 1 0 10303 214 3 1 1 }'));
ENDSEC;

DATA;
#10=MECHANICAL_DESIGN_GEOMETRIC_PRESENTATION_REPRESENTATION('',(#13),#516);
#11=SHAPE_REPRESENTATION_RELATIONSHIP('SRR','None',#523,#12);
#12=ADVANCED_BREP_SHAPE_REPRESENTATION('',(#14),#515);
#13=STYLED_ITEM('',(#532),#14);
#14=MANIFOLD_SOLID_BREP('Solid1',#304);
#15=FACE_BOUND('',#49,.T.);
#16=FACE_BOUND('',#55,.T.);
#17=PLANE('',#335);
#18=PLANE('',#336);
#19=PLANE('',#337);
#20=PLANE('',#338);
#21=PLANE('',#339);
#22=PLANE('',#340);
#23=PLANE('',#341);
#24=PLANE('',#342);
#25=PLANE('',#343);
#26=PLANE('',#344);
#27=PLANE('',#345);
#28=PLANE('',#346);
#29=CYLINDRICAL_SURFACE('',#329,2.45875);
#30=FACE_OUTER_BOUND('',#45,.T.);
#31=FACE_OUTER_BOUND('',#46,.T.);
#32=FACE_OUTER_BOUND('',#47,.T.);
#33=FACE_OUTER_BOUND('',#48,.T.);
#34=FACE_OUTER_BOUND('',#50,.T.);
#35=FACE_OUTER_BOUND('',#51,.T.);
#36=FACE_OUTER_BOUND('',#52,.T.);
#37=FACE_OUTER_BOUND('',#53,.T.);
#38=FACE_OUTER_BOUND('',#54,.T.);
#39=FACE_OUTER_BOUND('',#56,.T.);
#40=FACE_OUTER_BOUND('',#57,.T.);
#41=FACE_OUTER_BOUND('',#58,.T.);
#42=FACE_OUTER_BOUND('',#59,.T.);
#43=FACE_OUTER_BOUND('',#60,.T.);
#44=FACE_OUTER_BOUND('',#61,.T.);
#45=EDGE_LOOP('',(#205,#206,#207,#208,#209,#210));
#46=EDGE_LOOP('',(#211,#212,#213,#214,#215,#216));
#47=EDGE_LOOP('',(#217,#218,#219,#220,#221,#222));
#48=EDGE_LOOP('',(#223,#224,#225,#226));
#49=EDGE_LOOP('',(#227,#228));
#50=EDGE_LOOP('',(#229,#230,#231,#232));
#51=EDGE_LOOP('',(#233,#234,#235,#236));
#52=EDGE_LOOP('',(#237,#238,#239,#240));
#53=EDGE_LOOP('',(#241,#242,#243,#244));
#54=EDGE_LOOP('',(#245,#246,#247,#248));
#55=EDGE_LOOP('',(#249,#250));
#56=EDGE_LOOP('',(#251,#252,#253,#254));
#57=EDGE_LOOP('',(#255,#256,#257,#258));
#58=EDGE_LOOP('',(#259,#260,#261,#262));
#59=EDGE_LOOP('',(#263,#264,#265,#266));
#60=EDGE_LOOP('',(#267,#268,#269,#270,#271,#272,#273,#274,#275,#276));
#61=EDGE_LOOP('',(#277,#278,#279,#280,#281,#282,#283,#284,#285,#286));
#62=LINE('',#435,#95);
#63=LINE('',#441,#96);
#64=LINE('',#447,#97);
#65=LINE('',#454,#98);
#66=LINE('',#456,#99);
#67=LINE('',#458,#100);
#68=LINE('',#459,#101);
#69=LINE('',#462,#102);
#70=LINE('',#464,#103);
#71=LINE('',#465,#104);
#72=LINE('',#468,#105);
#73=LINE('',#470,#106);
#74=LINE('',#471,#107);
#75=LINE('',#474,#108);
#76=LINE('',#476,#109);
#77=LINE('',#477,#110);
#78=LINE('',#480,#111);
#79=LINE('',#482,#112);
#80=LINE('',#483,#113);
#81=LINE('',#486,#114);
#82=LINE('',#488,#115);
#83=LINE('',#489,#116);
#84=LINE('',#492,#117);
#85=LINE('',#494,#118);
#86=LINE('',#495,#119);
#87=LINE('',#498,#120);
#88=LINE('',#500,#121);
#89=LINE('',#501,#122);
#90=LINE('',#504,#123);
#91=LINE('',#506,#124);
#92=LINE('',#507,#125);
#93=LINE('',#509,#126);
#94=LINE('',#510,#127);
#95=VECTOR('',#355,2.729375);
#96=VECTOR('',#362,2.45875);
#97=VECTOR('',#369,2.729375);
#98=VECTOR('',#376,1.);
#99=VECTOR('',#377,1.);
#100=VECTOR('',#378,1.);
#101=VECTOR('',#379,1.);
#102=VECTOR('',#382,1.);
#103=VECTOR('',#383,1.);
#104=VECTOR('',#384,1.);
#105=VECTOR('',#387,1.);
#106=VECTOR('',#388,1.);
#107=VECTOR('',#389,1.);
#108=VECTOR('',#392,1.);
#109=VECTOR('',#393,1.);
#110=VECTOR('',#394,1.);
#111=VECTOR('',#397,1.);
#112=VECTOR('',#398,1.);
#113=VECTOR('',#399,1.);
#114=VECTOR('',#402,1.);
#115=VECTOR('',#403,1.);
#116=VECTOR('',#404,1.);
#117=VECTOR('',#407,1.);
#118=VECTOR('',#408,1.);
#119=VECTOR('',#409,1.);
#120=VECTOR('',#412,1.);
#121=VECTOR('',#413,1.);
#122=VECTOR('',#414,1.);
#123=VECTOR('',#417,1.);
#124=VECTOR('',#418,1.);
#125=VECTOR('',#419,1.);
#126=VECTOR('',#422,1.);
#127=VECTOR('',#423,1.);
#128=CIRCLE('',#325,3.);
#129=CIRCLE('',#326,3.);
#130=CIRCLE('',#327,2.45875);
#131=CIRCLE('',#328,2.45875);
#132=CIRCLE('',#330,2.45875);
#133=CIRCLE('',#331,2.45875);
#134=CIRCLE('',#333,3.);
#135=CIRCLE('',#334,3.);
#136=VERTEX_POINT('',#430);
#137=VERTEX_POINT('',#431);
#138=VERTEX_POINT('',#434);
#139=VERTEX_POINT('',#436);
#140=VERTEX_POINT('',#440);
#141=VERTEX_POINT('',#442);
#142=VERTEX_POINT('',#446);
#143=VERTEX_POINT('',#448);
#144=VERTEX_POINT('',#452);
#145=VERTEX_POINT('',#453);
#146=VERTEX_POINT('',#455);
#147=VERTEX_POINT('',#457);
#148=VERTEX_POINT('',#461);
#149=VERTEX_POINT('',#463);
#150=VERTEX_POINT('',#467);
#151=VERTEX_POINT('',#469);
#152=VERTEX_POINT('',#473);
#153=VERTEX_POINT('',#475);
#154=VERTEX_POINT('',#479);
#155=VERTEX_POINT('',#481);
#156=VERTEX_POINT('',#485);
#157=VERTEX_POINT('',#487);
#158=VERTEX_POINT('',#491);
#159=VERTEX_POINT('',#493);
#160=VERTEX_POINT('',#497);
#161=VERTEX_POINT('',#499);
#162=VERTEX_POINT('',#503);
#163=VERTEX_POINT('',#505);
#164=EDGE_CURVE('',#136,#137,#128,.T.);
#165=EDGE_CURVE('',#137,#136,#129,.T.);
#166=EDGE_CURVE('',#137,#138,#62,.T.);
#167=EDGE_CURVE('',#138,#139,#130,.T.);
#168=EDGE_CURVE('',#139,#138,#131,.T.);
#169=EDGE_CURVE('',#138,#140,#63,.T.);
#170=EDGE_CURVE('',#140,#141,#132,.T.);
#171=EDGE_CURVE('',#141,#140,#133,.T.);
#172=EDGE_CURVE('',#140,#142,#64,.T.);
#173=EDGE_CURVE('',#143,#142,#134,.T.);
#174=EDGE_CURVE('',#142,#143,#135,.T.);
#175=EDGE_CURVE('',#144,#145,#65,.T.);
#176=EDGE_CURVE('',#146,#145,#66,.T.);
#177=EDGE_CURVE('',#147,#146,#67,.T.);
#178=EDGE_CURVE('',#147,#144,#68,.T.);
#179=EDGE_CURVE('',#145,#148,#69,.T.);
#180=EDGE_CURVE('',#149,#148,#70,.T.);
#181=EDGE_CURVE('',#146,#149,#71,.T.);
#182=EDGE_CURVE('',#148,#150,#72,.T.);
#183=EDGE_CURVE('',#151,#150,#73,.T.);
#184=EDGE_CURVE('',#149,#151,#74,.T.);
#185=EDGE_CURVE('',#150,#152,#75,.T.);
#186=EDGE_CURVE('',#153,#152,#76,.T.);
#187=EDGE_CURVE('',#151,#153,#77,.T.);
#188=EDGE_CURVE('',#152,#154,#78,.T.);
#189=EDGE_CURVE('',#155,#154,#79,.T.);
#190=EDGE_CURVE('',#155,#153,#80,.T.);
#191=EDGE_CURVE('',#154,#156,#81,.T.);
#192=EDGE_CURVE('',#157,#156,#82,.T.);
#193=EDGE_CURVE('',#157,#155,#83,.T.);
#194=EDGE_CURVE('',#156,#158,#84,.T.);
#195=EDGE_CURVE('',#159,#158,#85,.T.);
#196=EDGE_CURVE('',#157,#159,#86,.T.);
#197=EDGE_CURVE('',#158,#160,#87,.T.);
#198=EDGE_CURVE('',#161,#160,#88,.T.);
#199=EDGE_CURVE('',#161,#159,#89,.T.);
#200=EDGE_CURVE('',#160,#162,#90,.T.);
#201=EDGE_CURVE('',#163,#162,#91,.T.);
#202=EDGE_CURVE('',#163,#161,#92,.T.);
#203=EDGE_CURVE('',#162,#144,#93,.T.);
#204=EDGE_CURVE('',#147,#163,#94,.T.);
#205=ORIENTED_EDGE('',*,*,#164,.F.);
#206=ORIENTED_EDGE('',*,*,#165,.F.);
#207=ORIENTED_EDGE('',*,*,#166,.T.);
#208=ORIENTED_EDGE('',*,*,#167,.T.);
#209=ORIENTED_EDGE('',*,*,#168,.T.);
#210=ORIENTED_EDGE('',*,*,#166,.F.);
#211=ORIENTED_EDGE('',*,*,#168,.F.);
#212=ORIENTED_EDGE('',*,*,#167,.F.);
#213=ORIENTED_EDGE('',*,*,#169,.T.);
#214=ORIENTED_EDGE('',*,*,#170,.T.);
#215=ORIENTED_EDGE('',*,*,#171,.T.);
#216=ORIENTED_EDGE('',*,*,#169,.F.);
#217=ORIENTED_EDGE('',*,*,#171,.F.);
#218=ORIENTED_EDGE('',*,*,#170,.F.);
#219=ORIENTED_EDGE('',*,*,#172,.T.);
#220=ORIENTED_EDGE('',*,*,#173,.F.);
#221=ORIENTED_EDGE('',*,*,#174,.F.);
#222=ORIENTED_EDGE('',*,*,#172,.F.);
#223=ORIENTED_EDGE('',*,*,#175,.T.);
#224=ORIENTED_EDGE('',*,*,#176,.F.);
#225=ORIENTED_EDGE('',*,*,#177,.F.);
#226=ORIENTED_EDGE('',*,*,#178,.T.);
#227=ORIENTED_EDGE('',*,*,#164,.T.);
#228=ORIENTED_EDGE('',*,*,#165,.T.);
#229=ORIENTED_EDGE('',*,*,#179,.T.);
#230=ORIENTED_EDGE('',*,*,#180,.F.);
#231=ORIENTED_EDGE('',*,*,#181,.F.);
#232=ORIENTED_EDGE('',*,*,#176,.T.);
#233=ORIENTED_EDGE('',*,*,#182,.T.);
#234=ORIENTED_EDGE('',*,*,#183,.F.);
#235=ORIENTED_EDGE('',*,*,#184,.F.);
#236=ORIENTED_EDGE('',*,*,#180,.T.);
#237=ORIENTED_EDGE('',*,*,#185,.T.);
#238=ORIENTED_EDGE('',*,*,#186,.F.);
#239=ORIENTED_EDGE('',*,*,#187,.F.);
#240=ORIENTED_EDGE('',*,*,#183,.T.);
#241=ORIENTED_EDGE('',*,*,#188,.T.);
#242=ORIENTED_EDGE('',*,*,#189,.F.);
#243=ORIENTED_EDGE('',*,*,#190,.T.);
#244=ORIENTED_EDGE('',*,*,#186,.T.);
#245=ORIENTED_EDGE('',*,*,#191,.T.);
#246=ORIENTED_EDGE('',*,*,#192,.F.);
#247=ORIENTED_EDGE('',*,*,#193,.T.);
#248=ORIENTED_EDGE('',*,*,#189,.T.);
#249=ORIENTED_EDGE('',*,*,#173,.T.);
#250=ORIENTED_EDGE('',*,*,#174,.T.);
#251=ORIENTED_EDGE('',*,*,#194,.T.);
#252=ORIENTED_EDGE('',*,*,#195,.F.);
#253=ORIENTED_EDGE('',*,*,#196,.F.);
#254=ORIENTED_EDGE('',*,*,#192,.T.);
#255=ORIENTED_EDGE('',*,*,#197,.T.);
#256=ORIENTED_EDGE('',*,*,#198,.F.);
#257=ORIENTED_EDGE('',*,*,#199,.T.);
#258=ORIENTED_EDGE('',*,*,#195,.T.);
#259=ORIENTED_EDGE('',*,*,#200,.T.);
#260=ORIENTED_EDGE('',*,*,#201,.F.);
#261=ORIENTED_EDGE('',*,*,#202,.T.);
#262=ORIENTED_EDGE('',*,*,#198,.T.);
#263=ORIENTED_EDGE('',*,*,#203,.T.);
#264=ORIENTED_EDGE('',*,*,#178,.F.);
#265=ORIENTED_EDGE('',*,*,#204,.T.);
#266=ORIENTED_EDGE('',*,*,#201,.T.);
#267=ORIENTED_EDGE('',*,*,#175,.F.);
#268=ORIENTED_EDGE('',*,*,#203,.F.);
#269=ORIENTED_EDGE('',*,*,#200,.F.);
#270=ORIENTED_EDGE('',*,*,#197,.F.);
#271=ORIENTED_EDGE('',*,*,#194,.F.);
#272=ORIENTED_EDGE('',*,*,#191,.F.);
#273=ORIENTED_EDGE('',*,*,#188,.F.);
#274=ORIENTED_EDGE('',*,*,#185,.F.);
#275=ORIENTED_EDGE('',*,*,#182,.F.);
#276=ORIENTED_EDGE('',*,*,#179,.F.);
#277=ORIENTED_EDGE('',*,*,#204,.F.);
#278=ORIENTED_EDGE('',*,*,#177,.T.);
#279=ORIENTED_EDGE('',*,*,#181,.T.);
#280=ORIENTED_EDGE('',*,*,#184,.T.);
#281=ORIENTED_EDGE('',*,*,#187,.T.);
#282=ORIENTED_EDGE('',*,*,#190,.F.);
#283=ORIENTED_EDGE('',*,*,#193,.F.);
#284=ORIENTED_EDGE('',*,*,#196,.T.);
#285=ORIENTED_EDGE('',*,*,#199,.F.);
#286=ORIENTED_EDGE('',*,*,#202,.F.);
#287=CONICAL_SURFACE('',#324,2.729375,0.785398163397448);
#288=CONICAL_SURFACE('',#332,2.729375,0.785398163397448);
#289=ADVANCED_FACE('',(#30),#287,.F.);
#290=ADVANCED_FACE('',(#31),#29,.F.);
#291=ADVANCED_FACE('',(#32),#288,.F.);
#292=ADVANCED_FACE('',(#33,#15),#17,.T.);
#293=ADVANCED_FACE('',(#34),#18,.T.);
#294=ADVANCED_FACE('',(#35),#19,.T.);
#295=ADVANCED_FACE('',(#36),#20,.T.);
#296=ADVANCED_FACE('',(#37),#21,.T.);
#297=ADVANCED_FACE('',(#38,#16),#22,.T.);
#298=ADVANCED_FACE('',(#39),#23,.T.);
#299=ADVANCED_FACE('',(#40),#24,.T.);
#300=ADVANCED_FACE('',(#41),#25,.T.);
#301=ADVANCED_FACE('',(#42),#26,.T.);
#302=ADVANCED_FACE('',(#43),#27,.T.);
#303=ADVANCED_FACE('',(#44),#28,.F.);
#304=CLOSED_SHELL('',(#289,#290,#291,#292,#293,#294,#295,#296,#297,#298,
#299,#300,#301,#302,#303));
#305=DERIVED_UNIT_ELEMENT(#307,1.);
#306=DERIVED_UNIT_ELEMENT(#518,3.);
#307=(
MASS_UNIT()
NAMED_UNIT(*)
SI_UNIT($,.GRAM.)
);
#308=DERIVED_UNIT((#305,#306));
#309=MEASURE_REPRESENTATION_ITEM('density measure',
POSITIVE_RATIO_MEASURE(7.85),#308);
#310=PROPERTY_DEFINITION_REPRESENTATION(#315,#312);
#311=PROPERTY_DEFINITION_REPRESENTATION(#316,#313);
#312=REPRESENTATION('material name',(#314),#515);
#313=REPRESENTATION('density',(#309),#515);
#314=DESCRIPTIVE_REPRESENTATION_ITEM('Stahl','Stahl');
#315=PROPERTY_DEFINITION('material property','material name',#525);
#316=PROPERTY_DEFINITION('material property','density of part',#525);
#317=DATE_TIME_ROLE('creation_date');
#318=APPLIED_DATE_AND_TIME_ASSIGNMENT(#319,#317,(#525));
#319=DATE_AND_TIME(#320,#321);
#320=CALENDAR_DATE(2021,15,6);
#321=LOCAL_TIME(8,30,40.,#322);
#322=COORDINATED_UNIVERSAL_TIME_OFFSET(0,0,.BEHIND.);
#323=AXIS2_PLACEMENT_3D('placement',#428,#347,#348);
#324=AXIS2_PLACEMENT_3D('',#429,#349,#350);
#325=AXIS2_PLACEMENT_3D('',#432,#351,#352);
#326=AXIS2_PLACEMENT_3D('',#433,#353,#354);
#327=AXIS2_PLACEMENT_3D('',#437,#356,#357);
#328=AXIS2_PLACEMENT_3D('',#438,#358,#359);
#329=AXIS2_PLACEMENT_3D('',#439,#360,#361);
#330=AXIS2_PLACEMENT_3D('',#443,#363,#364);
#331=AXIS2_PLACEMENT_3D('',#444,#365,#366);
#332=AXIS2_PLACEMENT_3D('',#445,#367,#368);
#333=AXIS2_PLACEMENT_3D('',#449,#370,#371);
#334=AXIS2_PLACEMENT_3D('',#450,#372,#373);
#335=AXIS2_PLACEMENT_3D('',#451,#374,#375);
#336=AXIS2_PLACEMENT_3D('',#460,#380,#381);
#337=AXIS2_PLACEMENT_3D('',#466,#385,#386);
#338=AXIS2_PLACEMENT_3D('',#472,#390,#391);
#339=AXIS2_PLACEMENT_3D('',#478,#395,#396);
#340=AXIS2_PLACEMENT_3D('',#484,#400,#401);
#341=AXIS2_PLACEMENT_3D('',#490,#405,#406);
#342=AXIS2_PLACEMENT_3D('',#496,#410,#411);
#343=AXIS2_PLACEMENT_3D('',#502,#415,#416);
#344=AXIS2_PLACEMENT_3D('',#508,#420,#421);
#345=AXIS2_PLACEMENT_3D('',#511,#424,#425);
#346=AXIS2_PLACEMENT_3D('',#512,#426,#427);
#347=DIRECTION('axis',(0.,0.,1.));
#348=DIRECTION('refdir',(1.,0.,0.));
#349=DIRECTION('center_axis',(-6.12303176911189E-17,-6.12303176911189E-17,
1.));
#350=DIRECTION('ref_axis',(6.12303176911189E-17,1.,6.12303176911189E-17));
#351=DIRECTION('center_axis',(6.12303176911189E-17,-3.74915180455534E-33,
-1.));
#352=DIRECTION('ref_axis',(6.12303176911189E-17,1.,6.12303176911189E-17));
#353=DIRECTION('center_axis',(6.12303176911189E-17,-3.74915180455534E-33,
-1.));
#354=DIRECTION('ref_axis',(6.12303176911189E-17,1.,6.12303176911189E-17));
#355=DIRECTION('',(1.73188351330743E-16,0.707106781186547,-0.707106781186547));
#356=DIRECTION('center_axis',(6.12303176911189E-17,6.12303176911189E-17,
-1.));
#357=DIRECTION('ref_axis',(6.12303176911189E-17,1.,6.12303176911189E-17));
#358=DIRECTION('center_axis',(6.12303176911189E-17,6.12303176911189E-17,
-1.));
#359=DIRECTION('ref_axis',(6.12303176911189E-17,1.,6.12303176911189E-17));
#360=DIRECTION('center_axis',(6.12303176911189E-17,6.12303176911189E-17,
-1.));
#361=DIRECTION('ref_axis',(6.12303176911189E-17,1.,6.12303176911189E-17));
#362=DIRECTION('',(6.12303176911189E-17,6.12303176911189E-17,-1.));
#363=DIRECTION('center_axis',(6.12303176911189E-17,6.12303176911189E-17,
-1.));
#364=DIRECTION('ref_axis',(6.12303176911189E-17,1.,6.12303176911189E-17));
#365=DIRECTION('center_axis',(6.12303176911189E-17,6.12303176911189E-17,
-1.));
#366=DIRECTION('ref_axis',(6.12303176911189E-17,1.,6.12303176911189E-17));
#367=DIRECTION('center_axis',(6.12303176911189E-17,6.12303176911189E-17,
-1.));
#368=DIRECTION('ref_axis',(6.12303176911189E-17,1.,6.12303176911189E-17));
#369=DIRECTION('',(-8.65956056235493E-17,-0.707106781186547,-0.707106781186547));
#370=DIRECTION('center_axis',(-6.12303176911189E-17,3.74915180455534E-33,
1.));
#371=DIRECTION('ref_axis',(6.12303176911189E-17,1.,6.12303176911189E-17));
#372=DIRECTION('center_axis',(-6.12303176911189E-17,3.74915180455534E-33,
1.));
#373=DIRECTION('ref_axis',(6.12303176911189E-17,1.,6.12303176911189E-17));
#374=DIRECTION('center_axis',(-6.12303176911189E-17,3.74915180455534E-33,
1.));
#375=DIRECTION('ref_axis',(-6.12303176911189E-17,-1.,0.));
#376=DIRECTION('',(6.12303176911189E-17,1.,-1.22460635382238E-16));
#377=DIRECTION('',(1.,-6.12303176911189E-17,6.12303176911189E-17));
#378=DIRECTION('',(6.12303176911189E-17,1.,0.));
#379=DIRECTION('',(1.,-6.12303176911189E-17,6.12303176911189E-17));
#380=DIRECTION('center_axis',(6.12303176911189E-17,1.,1.11022302462516E-16));
#381=DIRECTION('ref_axis',(-6.12303176911189E-17,-1.11022302462516E-16,
1.));
#382=DIRECTION('',(6.12303176911189E-17,1.11022302462516E-16,-1.));
#383=DIRECTION('',(1.,-6.12303176911189E-17,6.12303176911189E-17));
#384=DIRECTION('',(6.12303176911189E-17,1.11022302462516E-16,-1.));
#385=DIRECTION('center_axis',(-6.12303176911189E-17,3.74915180455534E-33,
1.));
#386=DIRECTION('ref_axis',(-6.12303176911189E-17,-1.,0.));
#387=DIRECTION('',(6.12303176911189E-17,1.,0.));
#388=DIRECTION('',(1.,-6.12303176911189E-17,6.12303176911189E-17));
#389=DIRECTION('',(6.12303176911189E-17,1.,0.));
#390=DIRECTION('center_axis',(6.12303176911189E-17,1.,0.));
#391=DIRECTION('ref_axis',(-6.12303176911189E-17,3.74915180455534E-33,1.));
#392=DIRECTION('',(6.12303176911189E-17,-3.74915180455534E-33,-1.));
#393=DIRECTION('',(1.,-6.12303176911189E-17,6.12303176911189E-17));
#394=DIRECTION('',(6.12303176911189E-17,-3.74915180455534E-33,-1.));
#395=DIRECTION('center_axis',(8.65927457071936E-17,0.707106781186548,-0.707106781186548));
#396=DIRECTION('ref_axis',(0.,0.707106781186548,0.707106781186548));
#397=DIRECTION('',(0.,-0.707106781186548,-0.707106781186548));
#398=DIRECTION('',(1.,-6.12303176911189E-17,6.12303176911189E-17));
#399=DIRECTION('',(0.,0.707106781186548,0.707106781186548));
#400=DIRECTION('center_axis',(6.12303176911189E-17,-3.74915180455534E-33,
-1.));
#401=DIRECTION('ref_axis',(6.12303176911189E-17,1.,0.));
#402=DIRECTION('',(-6.12303176911189E-17,-1.,0.));
#403=DIRECTION('',(1.,-6.12303176911189E-17,6.12303176911189E-17));
#404=DIRECTION('',(6.12303176911189E-17,1.,0.));
#405=DIRECTION('center_axis',(1.23259516440783E-32,-0.707106781186547,-0.707106781186548));
#406=DIRECTION('ref_axis',(8.65927457071935E-17,0.707106781186548,-0.707106781186548));
#407=DIRECTION('',(-8.65927457071935E-17,-0.707106781186548,0.707106781186548));
#408=DIRECTION('',(1.,-6.12303176911189E-17,6.12303176911189E-17));
#409=DIRECTION('',(-8.65927457071935E-17,-0.707106781186548,0.707106781186548));
#410=DIRECTION('center_axis',(-6.12303176911189E-17,-1.,2.96059473233375E-16));
#411=DIRECTION('ref_axis',(6.12303176911189E-17,-2.96059473233375E-16,-1.));
#412=DIRECTION('',(-6.12303176911189E-17,2.96059473233375E-16,1.));
#413=DIRECTION('',(1.,-6.12303176911189E-17,6.12303176911189E-17));
#414=DIRECTION('',(6.12303176911189E-17,-2.96059473233375E-16,-1.));
#415=DIRECTION('center_axis',(-6.12303176911189E-17,1.64477485129653E-16,
1.));
#416=DIRECTION('ref_axis',(-6.12303176911189E-17,-1.,1.64477485129653E-16));
#417=DIRECTION('',(6.12303176911189E-17,1.,-1.64477485129653E-16));
#418=DIRECTION('',(1.,-6.12303176911189E-17,6.12303176911189E-17));
#419=DIRECTION('',(-6.12303176911189E-17,-1.,1.64477485129653E-16));
#420=DIRECTION('center_axis',(-6.12303176911189E-17,-1.,2.22044604925031E-16));
#421=DIRECTION('ref_axis',(6.12303176911189E-17,-2.22044604925031E-16,-1.));
#422=DIRECTION('',(-6.12303176911189E-17,2.22044604925031E-16,1.));
#423=DIRECTION('',(6.12303176911189E-17,-2.22044604925031E-16,-1.));
#424=DIRECTION('center_axis',(1.,-6.12303176911189E-17,6.12303176911189E-17));
#425=DIRECTION('ref_axis',(6.12303176911189E-17,1.,0.));
#426=DIRECTION('center_axis',(1.,-6.12303176911189E-17,6.12303176911189E-17));
#427=DIRECTION('ref_axis',(6.12303176911189E-17,1.,0.));
#428=CARTESIAN_POINT('',(0.,0.,0.));
#429=CARTESIAN_POINT('Origin',(1.6570454725159E-17,1.6570454725159E-17,
-0.270624999999999));
#430=CARTESIAN_POINT('',(1.83690953073357E-16,3.,1.83690953073357E-16));
#431=CARTESIAN_POINT('',(-5.51084992817563E-16,-3.,2.77555756156289E-16));
#432=CARTESIAN_POINT('Origin',(6.79793085057932E-33,6.16297582203915E-33,
-1.11022302462516E-16));
#433=CARTESIAN_POINT('Origin',(6.79793085057932E-33,6.16297582203915E-33,
-1.11022302462516E-16));
#434=CARTESIAN_POINT('',(-4.18519165913076E-16,-2.45875,-0.54125));
#435=CARTESIAN_POINT('',(-4.84802079365319E-16,-2.729375,-0.270624999999999));
#436=CARTESIAN_POINT('',(1.83690953073357E-16,2.45875,-0.54125));
#437=CARTESIAN_POINT('Origin',(3.31409094503181E-17,3.31409094503181E-17,
-0.54125));
#438=CARTESIAN_POINT('Origin',(3.31409094503181E-17,3.31409094503181E-17,
-0.54125));
#439=CARTESIAN_POINT('Origin',(3.06151588455594E-16,3.06151588455594E-16,
-5.));
#440=CARTESIAN_POINT('',(1.27502192097477E-16,-2.45875,-9.45875));
#441=CARTESIAN_POINT('',(-1.455084869078E-16,-2.45875,-5.));
#442=CARTESIAN_POINT('',(7.29712311083909E-16,2.45875,-9.45875));
#443=CARTESIAN_POINT('Origin',(5.79162267460871E-16,5.79162267460871E-16,
-9.45875));
#444=CARTESIAN_POINT('Origin',(5.79162267460871E-16,5.79162267460871E-16,
-9.45875));
#445=CARTESIAN_POINT('Origin',(5.9573272218603E-16,5.9573272218603E-16,
-9.729375));
#446=CARTESIAN_POINT('',(6.12181840936263E-17,-3.,-10.));
#447=CARTESIAN_POINT('',(9.43601880955514E-17,-2.729375,-9.729375));
#448=CARTESIAN_POINT('',(7.95994129984545E-16,3.,-10.));
#449=CARTESIAN_POINT('Origin',(6.12303176911189E-16,6.12303176911189E-16,
-10.));
#450=CARTESIAN_POINT('Origin',(6.12303176911189E-16,6.12303176911189E-16,
-10.));
#451=CARTESIAN_POINT('Origin',(-6.5,1.9,-3.97997064992273E-16));
#452=CARTESIAN_POINT('',(6.5,-3.8,8.63347479444776E-16));
#453=CARTESIAN_POINT('',(6.5,3.8,3.97997064992273E-16));
#454=CARTESIAN_POINT('',(6.5,-3.97997064992273E-16,3.97997064992273E-16));
#455=CARTESIAN_POINT('',(-6.5,3.8,-3.97997064992273E-16));
#456=CARTESIAN_POINT('',(-6.5,3.8,-3.97997064992273E-16));
#457=CARTESIAN_POINT('',(-6.5,-3.8,6.73533494602307E-17));
#458=CARTESIAN_POINT('',(-6.5,3.97997064992273E-16,-3.97997064992273E-16));
#459=CARTESIAN_POINT('',(-6.5,-3.8,6.73533494602307E-17));
#460=CARTESIAN_POINT('Origin',(-6.5,3.8,-2.));
#461=CARTESIAN_POINT('',(6.5,3.8,-4.));
#462=CARTESIAN_POINT('',(6.5,3.8,3.97997064992273E-16));
#463=CARTESIAN_POINT('',(-6.5,3.8,-4.));
#464=CARTESIAN_POINT('',(-6.5,3.8,-4.));
#465=CARTESIAN_POINT('',(-6.5,3.8,-3.97997064992273E-16));
#466=CARTESIAN_POINT('Origin',(-6.5,5.15,-4.));
#467=CARTESIAN_POINT('',(6.5,6.5,-4.));
#468=CARTESIAN_POINT('',(6.5,3.8,-4.));
#469=CARTESIAN_POINT('',(-6.5,6.5,-4.));
#470=CARTESIAN_POINT('',(-6.5,6.5,-4.));
#471=CARTESIAN_POINT('',(-6.5,3.8,-4.));
#472=CARTESIAN_POINT('Origin',(-6.5,6.5,-5.5));
#473=CARTESIAN_POINT('',(6.5,6.5,-7.));
#474=CARTESIAN_POINT('',(6.5,6.5,-4.));
#475=CARTESIAN_POINT('',(-6.5,6.5,-7.));
#476=CARTESIAN_POINT('',(-6.5,6.5,-7.));
#477=CARTESIAN_POINT('',(-6.5,6.5,-4.));
#478=CARTESIAN_POINT('Origin',(-6.5,5.,-8.5));
#479=CARTESIAN_POINT('',(6.5,3.5,-10.));
#480=CARTESIAN_POINT('',(6.5,3.5,-10.));
#481=CARTESIAN_POINT('',(-6.5,3.5,-10.));
#482=CARTESIAN_POINT('',(-6.5,3.5,-10.));
#483=CARTESIAN_POINT('',(-6.5,3.5,-10.));
#484=CARTESIAN_POINT('Origin',(-6.5,3.97997064992273E-16,-10.));
#485=CARTESIAN_POINT('',(6.5,-3.5,-10.));
#486=CARTESIAN_POINT('',(6.5,-3.5,-10.));
#487=CARTESIAN_POINT('',(-6.5,-3.5,-10.));
#488=CARTESIAN_POINT('',(-6.5,-3.5,-10.));
#489=CARTESIAN_POINT('',(-6.5,-3.5,-10.));
#490=CARTESIAN_POINT('Origin',(-6.5,-5.,-8.5));
#491=CARTESIAN_POINT('',(6.5,-6.5,-7.));
#492=CARTESIAN_POINT('',(6.5,-3.5,-10.));
#493=CARTESIAN_POINT('',(-6.5,-6.5,-7.));
#494=CARTESIAN_POINT('',(-6.5,-6.5,-7.));
#495=CARTESIAN_POINT('',(-6.5,-3.5,-10.));
#496=CARTESIAN_POINT('Origin',(-6.5,-6.5,-5.5));
#497=CARTESIAN_POINT('',(6.5,-6.5,-4.));
#498=CARTESIAN_POINT('',(6.5,-6.5,-4.));
#499=CARTESIAN_POINT('',(-6.5,-6.5,-4.));
#500=CARTESIAN_POINT('',(-6.5,-6.5,-4.));
#501=CARTESIAN_POINT('',(-6.5,-6.5,-4.));
#502=CARTESIAN_POINT('Origin',(-6.5,-5.15,-4.));
#503=CARTESIAN_POINT('',(6.5,-3.8,-4.));
#504=CARTESIAN_POINT('',(6.5,-3.8,-4.));
#505=CARTESIAN_POINT('',(-6.5,-3.8,-4.));
#506=CARTESIAN_POINT('',(-6.5,-3.8,-4.));
#507=CARTESIAN_POINT('',(-6.5,-3.8,-4.));
#508=CARTESIAN_POINT('Origin',(-6.5,-3.8,-2.));
#509=CARTESIAN_POINT('',(6.5,-3.8,8.63347479444776E-16));
#510=CARTESIAN_POINT('',(-6.5,-3.8,6.73533494602307E-17));
#511=CARTESIAN_POINT('Origin',(6.5,-9.53108577304851E-16,-5.00702560510794));
#512=CARTESIAN_POINT('Origin',(-6.5,-1.57114447320306E-16,-5.00702560510794));
#513=UNCERTAINTY_MEASURE_WITH_UNIT(LENGTH_MEASURE(0.01),#517,
'DISTANCE_ACCURACY_VALUE',
'Maximum model space distance between geometric entities at asserted c
onnectivities');
#514=UNCERTAINTY_MEASURE_WITH_UNIT(LENGTH_MEASURE(0.01),#517,
'DISTANCE_ACCURACY_VALUE',
'Maximum model space distance between geometric entities at asserted c
onnectivities');
#515=(
GEOMETRIC_REPRESENTATION_CONTEXT(3)
GLOBAL_UNCERTAINTY_ASSIGNED_CONTEXT((#513))
GLOBAL_UNIT_ASSIGNED_CONTEXT((#517,#520,#519))
REPRESENTATION_CONTEXT('','3D')
);
#516=(
GEOMETRIC_REPRESENTATION_CONTEXT(3)
GLOBAL_UNCERTAINTY_ASSIGNED_CONTEXT((#514))
GLOBAL_UNIT_ASSIGNED_CONTEXT((#517,#520,#519))
REPRESENTATION_CONTEXT('','3D')
);
#517=(
LENGTH_UNIT()
NAMED_UNIT(*)
SI_UNIT(.MILLI.,.METRE.)
);
#518=(
LENGTH_UNIT()
NAMED_UNIT(*)
SI_UNIT(.CENTI.,.METRE.)
);
#519=(
NAMED_UNIT(*)
SI_UNIT($,.STERADIAN.)
SOLID_ANGLE_UNIT()
);
#520=(
NAMED_UNIT(*)
PLANE_ANGLE_UNIT()
SI_UNIT($,.RADIAN.)
);
#521=SHAPE_DEFINITION_REPRESENTATION(#522,#523);
#522=PRODUCT_DEFINITION_SHAPE('',$,#525);
#523=SHAPE_REPRESENTATION('',(#323),#515);
#524=PRODUCT_DEFINITION_CONTEXT('part definition',#529,'design');
#525=PRODUCT_DEFINITION('22906',
'22906_KriTec_T-Nutenstein_8_St_M6_verzinkt',#526,#524);
#526=PRODUCT_DEFINITION_FORMATION('',$,#531);
#527=PRODUCT_RELATED_PRODUCT_CATEGORY(
'22906_KriTec_T-Nutenstein_8_St_M6_verzinkt',
'22906_KriTec_T-Nutenstein_8_St_M6_verzinkt',(#531));
#528=APPLICATION_PROTOCOL_DEFINITION('international standard',
'automotive_design',2009,#529);
#529=APPLICATION_CONTEXT(
'Core Data for Automotive Mechanical Design Process');
#530=PRODUCT_CONTEXT('part definition',#529,'mechanical');
#531=PRODUCT('22906','22906_KriTec_T-Nutenstein_8_St_M6_verzinkt',
'KriTec T-Nutenstein 8 St M6, verzinkt',(#530));
#532=PRESENTATION_STYLE_ASSIGNMENT((#533));
#533=SURFACE_STYLE_USAGE(.BOTH.,#534);
#534=SURFACE_SIDE_STYLE('',(#535));
#535=SURFACE_STYLE_FILL_AREA(#536);
#536=FILL_AREA_STYLE('',(#537));
#537=FILL_AREA_STYLE_COLOUR('',#538);
#538=COLOUR_RGB('',0.956862745098039,0.956862745098039,0.956862745098039);
ENDSEC;
END-ISO-10303-21;
