ISO-10303-21;
HEADER;
/* Generated by software containing ST-Developer
 * from STEP Tools, Inc. (www.steptools.com) 
 */

FILE_DESCRIPTION(
/* description */ (
'KriTec Vario Lasche 8 84x40 St wei\X\DFaluminium \X\E4hnlich RAL 9006'),

/* implementation_level */ '2;1');

FILE_NAME(
/* name */ 
'S:\\Bilder_neu\\22277_KriTec_Vario-Lasche_8_84x40x4_St_weissaluminium
_aehnl_RAL_9006\\Inventordateien\\22277_KriTec_Vario-Lasche_8_84x40x4_
St_weissaluminium_aehnl_RAL_9006.stp',
/* time_stamp */ '2021-10-12T10:27:58+02:00',
/* author */ ('jendrek'),
/* organization */ (''),
/* preprocessor_version */ 'ST-DEVELOPER v17',
/* originating_system */ 'Autodesk Inventor 2018',
/* authorisation */ '');

FILE_SCHEMA (('AUTOMOTIVE_DESIGN { 1 0 10303 214 3 1 1 }'));
ENDSEC;

DATA;
#10=MECHANICAL_DESIGN_GEOMETRIC_PRESENTATION_REPRESENTATION('',(#13),#567);
#11=SHAPE_REPRESENTATION_RELATIONSHIP('SRR','None',#574,#12);
#12=ADVANCED_BREP_SHAPE_REPRESENTATION('',(#14),#566);
#13=STYLED_ITEM('',(#583),#14);
#14=MANIFOLD_SOLID_BREP('Volumenk\X\F6rper3',#323);
#15=FACE_BOUND('',#48,.T.);
#16=FACE_BOUND('',#49,.T.);
#17=FACE_BOUND('',#50,.T.);
#18=FACE_BOUND('',#64,.T.);
#19=FACE_BOUND('',#65,.T.);
#20=FACE_BOUND('',#66,.T.);
#21=PLANE('',#346);
#22=PLANE('',#347);
#23=PLANE('',#357);
#24=PLANE('',#368);
#25=PLANE('',#371);
#26=PLANE('',#374);
#27=PLANE('',#375);
#28=PLANE('',#376);
#29=FACE_OUTER_BOUND('',#45,.T.);
#30=FACE_OUTER_BOUND('',#46,.T.);
#31=FACE_OUTER_BOUND('',#47,.T.);
#32=FACE_OUTER_BOUND('',#51,.T.);
#33=FACE_OUTER_BOUND('',#52,.T.);
#34=FACE_OUTER_BOUND('',#53,.T.);
#35=FACE_OUTER_BOUND('',#54,.T.);
#36=FACE_OUTER_BOUND('',#55,.T.);
#37=FACE_OUTER_BOUND('',#56,.T.);
#38=FACE_OUTER_BOUND('',#57,.T.);
#39=FACE_OUTER_BOUND('',#58,.T.);
#40=FACE_OUTER_BOUND('',#59,.T.);
#41=FACE_OUTER_BOUND('',#60,.T.);
#42=FACE_OUTER_BOUND('',#61,.T.);
#43=FACE_OUTER_BOUND('',#62,.T.);
#44=FACE_OUTER_BOUND('',#63,.T.);
#45=EDGE_LOOP('',(#211,#212,#213,#214));
#46=EDGE_LOOP('',(#215,#216,#217,#218));
#47=EDGE_LOOP('',(#219,#220,#221,#222,#223,#224,#225,#226));
#48=EDGE_LOOP('',(#227));
#49=EDGE_LOOP('',(#228));
#50=EDGE_LOOP('',(#229,#230,#231,#232));
#51=EDGE_LOOP('',(#233,#234,#235,#236));
#52=EDGE_LOOP('',(#237,#238,#239,#240));
#53=EDGE_LOOP('',(#241,#242,#243,#244));
#54=EDGE_LOOP('',(#245,#246,#247,#248));
#55=EDGE_LOOP('',(#249,#250,#251,#252,#253));
#56=EDGE_LOOP('',(#254,#255,#256,#257,#258));
#57=EDGE_LOOP('',(#259,#260,#261,#262));
#58=EDGE_LOOP('',(#263,#264,#265,#266));
#59=EDGE_LOOP('',(#267,#268,#269,#270));
#60=EDGE_LOOP('',(#271,#272,#273,#274));
#61=EDGE_LOOP('',(#275,#276,#277,#278));
#62=EDGE_LOOP('',(#279,#280,#281,#282));
#63=EDGE_LOOP('',(#283,#284,#285,#286,#287,#288,#289,#290));
#64=EDGE_LOOP('',(#291,#292));
#65=EDGE_LOOP('',(#293,#294));
#66=EDGE_LOOP('',(#295,#296,#297,#298));
#67=LINE('',#479,#93);
#68=LINE('',#482,#94);
#69=LINE('',#485,#95);
#70=LINE('',#487,#96);
#71=LINE('',#488,#97);
#72=LINE('',#491,#98);
#73=LINE('',#495,#99);
#74=LINE('',#499,#100);
#75=LINE('',#507,#101);
#76=LINE('',#511,#102);
#77=LINE('',#517,#103);
#78=LINE('',#518,#104);
#79=LINE('',#521,#105);
#80=LINE('',#522,#106);
#81=LINE('',#526,#107);
#82=LINE('',#530,#108);
#83=LINE('',#536,#109);
#84=LINE('',#542,#110);
#85=LINE('',#545,#111);
#86=LINE('',#547,#112);
#87=LINE('',#548,#113);
#88=LINE('',#552,#114);
#89=LINE('',#555,#115);
#90=LINE('',#556,#116);
#91=LINE('',#560,#117);
#92=LINE('',#562,#118);
#93=VECTOR('',#383,10.);
#94=VECTOR('',#386,10.);
#95=VECTOR('',#389,10.);
#96=VECTOR('',#390,10.);
#97=VECTOR('',#391,10.);
#98=VECTOR('',#394,10.);
#99=VECTOR('',#397,10.);
#100=VECTOR('',#400,10.);
#101=VECTOR('',#407,10.);
#102=VECTOR('',#410,10.);
#103=VECTOR('',#417,10.);
#104=VECTOR('',#418,10.);
#105=VECTOR('',#421,10.);
#106=VECTOR('',#422,10.);
#107=VECTOR('',#427,10.);
#108=VECTOR('',#432,10.);
#109=VECTOR('',#439,4.2);
#110=VECTOR('',#446,4.2);
#111=VECTOR('',#449,10.);
#112=VECTOR('',#450,10.);
#113=VECTOR('',#451,10.);
#114=VECTOR('',#456,10.);
#115=VECTOR('',#459,10.);
#116=VECTOR('',#460,10.);
#117=VECTOR('',#467,10.);
#118=VECTOR('',#470,10.);
#119=CIRCLE('',#344,4.);
#120=CIRCLE('',#345,4.);
#121=CIRCLE('',#348,4.);
#122=CIRCLE('',#349,4.);
#123=CIRCLE('',#350,4.);
#124=CIRCLE('',#351,4.2);
#125=CIRCLE('',#352,4.2);
#126=CIRCLE('',#353,4.2);
#127=CIRCLE('',#354,4.2);
#128=CIRCLE('',#356,4.);
#129=CIRCLE('',#359,4.);
#130=CIRCLE('',#361,4.);
#131=CIRCLE('',#363,4.2);
#132=CIRCLE('',#364,4.2);
#133=CIRCLE('',#366,4.2);
#134=CIRCLE('',#367,4.2);
#135=CIRCLE('',#370,4.2);
#136=CIRCLE('',#373,4.2);
#137=VERTEX_POINT('',#475);
#138=VERTEX_POINT('',#476);
#139=VERTEX_POINT('',#478);
#140=VERTEX_POINT('',#480);
#141=VERTEX_POINT('',#484);
#142=VERTEX_POINT('',#486);
#143=VERTEX_POINT('',#490);
#144=VERTEX_POINT('',#492);
#145=VERTEX_POINT('',#494);
#146=VERTEX_POINT('',#496);
#147=VERTEX_POINT('',#498);
#148=VERTEX_POINT('',#501);
#149=VERTEX_POINT('',#503);
#150=VERTEX_POINT('',#505);
#151=VERTEX_POINT('',#506);
#152=VERTEX_POINT('',#508);
#153=VERTEX_POINT('',#510);
#154=VERTEX_POINT('',#514);
#155=VERTEX_POINT('',#515);
#156=VERTEX_POINT('',#520);
#157=VERTEX_POINT('',#524);
#158=VERTEX_POINT('',#528);
#159=VERTEX_POINT('',#532);
#160=VERTEX_POINT('',#533);
#161=VERTEX_POINT('',#538);
#162=VERTEX_POINT('',#539);
#163=VERTEX_POINT('',#544);
#164=VERTEX_POINT('',#546);
#165=VERTEX_POINT('',#550);
#166=VERTEX_POINT('',#554);
#167=EDGE_CURVE('',#137,#138,#119,.T.);
#168=EDGE_CURVE('',#138,#139,#67,.T.);
#169=EDGE_CURVE('',#139,#140,#120,.T.);
#170=EDGE_CURVE('',#140,#137,#68,.T.);
#171=EDGE_CURVE('',#140,#141,#69,.T.);
#172=EDGE_CURVE('',#142,#141,#70,.T.);
#173=EDGE_CURVE('',#142,#137,#71,.T.);
#174=EDGE_CURVE('',#143,#139,#72,.T.);
#175=EDGE_CURVE('',#144,#143,#121,.T.);
#176=EDGE_CURVE('',#145,#144,#73,.T.);
#177=EDGE_CURVE('',#146,#145,#122,.T.);
#178=EDGE_CURVE('',#147,#146,#74,.T.);
#179=EDGE_CURVE('',#141,#147,#123,.T.);
#180=EDGE_CURVE('',#148,#148,#124,.T.);
#181=EDGE_CURVE('',#149,#149,#125,.T.);
#182=EDGE_CURVE('',#150,#151,#75,.T.);
#183=EDGE_CURVE('',#151,#152,#126,.T.);
#184=EDGE_CURVE('',#152,#153,#76,.T.);
#185=EDGE_CURVE('',#153,#150,#127,.T.);
#186=EDGE_CURVE('',#154,#155,#128,.T.);
#187=EDGE_CURVE('',#155,#144,#77,.T.);
#188=EDGE_CURVE('',#143,#154,#78,.T.);
#189=EDGE_CURVE('',#155,#156,#79,.T.);
#190=EDGE_CURVE('',#145,#156,#80,.T.);
#191=EDGE_CURVE('',#156,#157,#129,.T.);
#192=EDGE_CURVE('',#157,#146,#81,.T.);
#193=EDGE_CURVE('',#158,#142,#130,.T.);
#194=EDGE_CURVE('',#147,#158,#82,.T.);
#195=EDGE_CURVE('',#159,#160,#131,.T.);
#196=EDGE_CURVE('',#160,#159,#132,.T.);
#197=EDGE_CURVE('',#160,#148,#83,.T.);
#198=EDGE_CURVE('',#161,#162,#133,.T.);
#199=EDGE_CURVE('',#162,#161,#134,.T.);
#200=EDGE_CURVE('',#162,#149,#84,.T.);
#201=EDGE_CURVE('',#163,#152,#85,.T.);
#202=EDGE_CURVE('',#164,#163,#86,.T.);
#203=EDGE_CURVE('',#164,#153,#87,.T.);
#204=EDGE_CURVE('',#165,#164,#135,.T.);
#205=EDGE_CURVE('',#165,#150,#88,.T.);
#206=EDGE_CURVE('',#166,#165,#89,.T.);
#207=EDGE_CURVE('',#166,#151,#90,.T.);
#208=EDGE_CURVE('',#163,#166,#136,.T.);
#209=EDGE_CURVE('',#157,#158,#91,.T.);
#210=EDGE_CURVE('',#138,#154,#92,.T.);
#211=ORIENTED_EDGE('',*,*,#167,.T.);
#212=ORIENTED_EDGE('',*,*,#168,.T.);
#213=ORIENTED_EDGE('',*,*,#169,.T.);
#214=ORIENTED_EDGE('',*,*,#170,.T.);
#215=ORIENTED_EDGE('',*,*,#170,.F.);
#216=ORIENTED_EDGE('',*,*,#171,.T.);
#217=ORIENTED_EDGE('',*,*,#172,.F.);
#218=ORIENTED_EDGE('',*,*,#173,.T.);
#219=ORIENTED_EDGE('',*,*,#169,.F.);
#220=ORIENTED_EDGE('',*,*,#174,.F.);
#221=ORIENTED_EDGE('',*,*,#175,.F.);
#222=ORIENTED_EDGE('',*,*,#176,.F.);
#223=ORIENTED_EDGE('',*,*,#177,.F.);
#224=ORIENTED_EDGE('',*,*,#178,.F.);
#225=ORIENTED_EDGE('',*,*,#179,.F.);
#226=ORIENTED_EDGE('',*,*,#171,.F.);
#227=ORIENTED_EDGE('',*,*,#180,.T.);
#228=ORIENTED_EDGE('',*,*,#181,.T.);
#229=ORIENTED_EDGE('',*,*,#182,.T.);
#230=ORIENTED_EDGE('',*,*,#183,.T.);
#231=ORIENTED_EDGE('',*,*,#184,.T.);
#232=ORIENTED_EDGE('',*,*,#185,.T.);
#233=ORIENTED_EDGE('',*,*,#186,.T.);
#234=ORIENTED_EDGE('',*,*,#187,.T.);
#235=ORIENTED_EDGE('',*,*,#175,.T.);
#236=ORIENTED_EDGE('',*,*,#188,.T.);
#237=ORIENTED_EDGE('',*,*,#187,.F.);
#238=ORIENTED_EDGE('',*,*,#189,.T.);
#239=ORIENTED_EDGE('',*,*,#190,.F.);
#240=ORIENTED_EDGE('',*,*,#176,.T.);
#241=ORIENTED_EDGE('',*,*,#191,.T.);
#242=ORIENTED_EDGE('',*,*,#192,.T.);
#243=ORIENTED_EDGE('',*,*,#177,.T.);
#244=ORIENTED_EDGE('',*,*,#190,.T.);
#245=ORIENTED_EDGE('',*,*,#193,.T.);
#246=ORIENTED_EDGE('',*,*,#172,.T.);
#247=ORIENTED_EDGE('',*,*,#179,.T.);
#248=ORIENTED_EDGE('',*,*,#194,.T.);
#249=ORIENTED_EDGE('',*,*,#195,.F.);
#250=ORIENTED_EDGE('',*,*,#196,.F.);
#251=ORIENTED_EDGE('',*,*,#197,.T.);
#252=ORIENTED_EDGE('',*,*,#180,.F.);
#253=ORIENTED_EDGE('',*,*,#197,.F.);
#254=ORIENTED_EDGE('',*,*,#198,.F.);
#255=ORIENTED_EDGE('',*,*,#199,.F.);
#256=ORIENTED_EDGE('',*,*,#200,.T.);
#257=ORIENTED_EDGE('',*,*,#181,.F.);
#258=ORIENTED_EDGE('',*,*,#200,.F.);
#259=ORIENTED_EDGE('',*,*,#184,.F.);
#260=ORIENTED_EDGE('',*,*,#201,.F.);
#261=ORIENTED_EDGE('',*,*,#202,.F.);
#262=ORIENTED_EDGE('',*,*,#203,.T.);
#263=ORIENTED_EDGE('',*,*,#185,.F.);
#264=ORIENTED_EDGE('',*,*,#203,.F.);
#265=ORIENTED_EDGE('',*,*,#204,.F.);
#266=ORIENTED_EDGE('',*,*,#205,.T.);
#267=ORIENTED_EDGE('',*,*,#182,.F.);
#268=ORIENTED_EDGE('',*,*,#205,.F.);
#269=ORIENTED_EDGE('',*,*,#206,.F.);
#270=ORIENTED_EDGE('',*,*,#207,.T.);
#271=ORIENTED_EDGE('',*,*,#183,.F.);
#272=ORIENTED_EDGE('',*,*,#207,.F.);
#273=ORIENTED_EDGE('',*,*,#208,.F.);
#274=ORIENTED_EDGE('',*,*,#201,.T.);
#275=ORIENTED_EDGE('',*,*,#192,.F.);
#276=ORIENTED_EDGE('',*,*,#209,.T.);
#277=ORIENTED_EDGE('',*,*,#194,.F.);
#278=ORIENTED_EDGE('',*,*,#178,.T.);
#279=ORIENTED_EDGE('',*,*,#168,.F.);
#280=ORIENTED_EDGE('',*,*,#210,.T.);
#281=ORIENTED_EDGE('',*,*,#188,.F.);
#282=ORIENTED_EDGE('',*,*,#174,.T.);
#283=ORIENTED_EDGE('',*,*,#167,.F.);
#284=ORIENTED_EDGE('',*,*,#173,.F.);
#285=ORIENTED_EDGE('',*,*,#193,.F.);
#286=ORIENTED_EDGE('',*,*,#209,.F.);
#287=ORIENTED_EDGE('',*,*,#191,.F.);
#288=ORIENTED_EDGE('',*,*,#189,.F.);
#289=ORIENTED_EDGE('',*,*,#186,.F.);
#290=ORIENTED_EDGE('',*,*,#210,.F.);
#291=ORIENTED_EDGE('',*,*,#195,.T.);
#292=ORIENTED_EDGE('',*,*,#196,.T.);
#293=ORIENTED_EDGE('',*,*,#198,.T.);
#294=ORIENTED_EDGE('',*,*,#199,.T.);
#295=ORIENTED_EDGE('',*,*,#206,.T.);
#296=ORIENTED_EDGE('',*,*,#204,.T.);
#297=ORIENTED_EDGE('',*,*,#202,.T.);
#298=ORIENTED_EDGE('',*,*,#208,.T.);
#299=CYLINDRICAL_SURFACE('',#343,4.);
#300=CYLINDRICAL_SURFACE('',#355,4.);
#301=CYLINDRICAL_SURFACE('',#358,4.);
#302=CYLINDRICAL_SURFACE('',#360,4.);
#303=CYLINDRICAL_SURFACE('',#362,4.2);
#304=CYLINDRICAL_SURFACE('',#365,4.2);
#305=CYLINDRICAL_SURFACE('',#369,4.2);
#306=CYLINDRICAL_SURFACE('',#372,4.2);
#307=ADVANCED_FACE('',(#29),#299,.T.);
#308=ADVANCED_FACE('',(#30),#21,.T.);
#309=ADVANCED_FACE('',(#31,#15,#16,#17),#22,.F.);
#310=ADVANCED_FACE('',(#32),#300,.T.);
#311=ADVANCED_FACE('',(#33),#23,.T.);
#312=ADVANCED_FACE('',(#34),#301,.T.);
#313=ADVANCED_FACE('',(#35),#302,.T.);
#314=ADVANCED_FACE('',(#36),#303,.F.);
#315=ADVANCED_FACE('',(#37),#304,.F.);
#316=ADVANCED_FACE('',(#38),#24,.F.);
#317=ADVANCED_FACE('',(#39),#305,.F.);
#318=ADVANCED_FACE('',(#40),#25,.F.);
#319=ADVANCED_FACE('',(#41),#306,.F.);
#320=ADVANCED_FACE('',(#42),#26,.T.);
#321=ADVANCED_FACE('',(#43),#27,.T.);
#322=ADVANCED_FACE('',(#44,#18,#19,#20),#28,.T.);
#323=CLOSED_SHELL('',(#307,#308,#309,#310,#311,#312,#313,#314,#315,#316,
#317,#318,#319,#320,#321,#322));
#324=DERIVED_UNIT_ELEMENT(#326,1.);
#325=DERIVED_UNIT_ELEMENT(#569,3.);
#326=(
MASS_UNIT()
NAMED_UNIT(*)
SI_UNIT($,.GRAM.)
);
#327=DERIVED_UNIT((#324,#325));
#328=MEASURE_REPRESENTATION_ITEM('density measure',
POSITIVE_RATIO_MEASURE(7.85),#327);
#329=PROPERTY_DEFINITION_REPRESENTATION(#334,#331);
#330=PROPERTY_DEFINITION_REPRESENTATION(#335,#332);
#331=REPRESENTATION('material name',(#333),#566);
#332=REPRESENTATION('density',(#328),#566);
#333=DESCRIPTIVE_REPRESENTATION_ITEM('Stahl, pulverbeschichtet schwarz',
'Stahl, pulverbeschichtet schwarz');
#334=PROPERTY_DEFINITION('material property','material name',#576);
#335=PROPERTY_DEFINITION('material property','density of part',#576);
#336=DATE_TIME_ROLE('creation_date');
#337=APPLIED_DATE_AND_TIME_ASSIGNMENT(#338,#336,(#576));
#338=DATE_AND_TIME(#339,#340);
#339=CALENDAR_DATE(2021,12,10);
#340=LOCAL_TIME(7,37,1.,#341);
#341=COORDINATED_UNIVERSAL_TIME_OFFSET(0,0,.BEHIND.);
#342=AXIS2_PLACEMENT_3D('placement',#473,#377,#378);
#343=AXIS2_PLACEMENT_3D('',#474,#379,#380);
#344=AXIS2_PLACEMENT_3D('',#477,#381,#382);
#345=AXIS2_PLACEMENT_3D('',#481,#384,#385);
#346=AXIS2_PLACEMENT_3D('',#483,#387,#388);
#347=AXIS2_PLACEMENT_3D('',#489,#392,#393);
#348=AXIS2_PLACEMENT_3D('',#493,#395,#396);
#349=AXIS2_PLACEMENT_3D('',#497,#398,#399);
#350=AXIS2_PLACEMENT_3D('',#500,#401,#402);
#351=AXIS2_PLACEMENT_3D('',#502,#403,#404);
#352=AXIS2_PLACEMENT_3D('',#504,#405,#406);
#353=AXIS2_PLACEMENT_3D('',#509,#408,#409);
#354=AXIS2_PLACEMENT_3D('',#512,#411,#412);
#355=AXIS2_PLACEMENT_3D('',#513,#413,#414);
#356=AXIS2_PLACEMENT_3D('',#516,#415,#416);
#357=AXIS2_PLACEMENT_3D('',#519,#419,#420);
#358=AXIS2_PLACEMENT_3D('',#523,#423,#424);
#359=AXIS2_PLACEMENT_3D('',#525,#425,#426);
#360=AXIS2_PLACEMENT_3D('',#527,#428,#429);
#361=AXIS2_PLACEMENT_3D('',#529,#430,#431);
#362=AXIS2_PLACEMENT_3D('',#531,#433,#434);
#363=AXIS2_PLACEMENT_3D('',#534,#435,#436);
#364=AXIS2_PLACEMENT_3D('',#535,#437,#438);
#365=AXIS2_PLACEMENT_3D('',#537,#440,#441);
#366=AXIS2_PLACEMENT_3D('',#540,#442,#443);
#367=AXIS2_PLACEMENT_3D('',#541,#444,#445);
#368=AXIS2_PLACEMENT_3D('',#543,#447,#448);
#369=AXIS2_PLACEMENT_3D('',#549,#452,#453);
#370=AXIS2_PLACEMENT_3D('',#551,#454,#455);
#371=AXIS2_PLACEMENT_3D('',#553,#457,#458);
#372=AXIS2_PLACEMENT_3D('',#557,#461,#462);
#373=AXIS2_PLACEMENT_3D('',#558,#463,#464);
#374=AXIS2_PLACEMENT_3D('',#559,#465,#466);
#375=AXIS2_PLACEMENT_3D('',#561,#468,#469);
#376=AXIS2_PLACEMENT_3D('',#563,#471,#472);
#377=DIRECTION('axis',(0.,0.,1.));
#378=DIRECTION('refdir',(1.,0.,0.));
#379=DIRECTION('center_axis',(0.,0.,1.));
#380=DIRECTION('ref_axis',(0.70710678118655,0.707106781186545,0.));
#381=DIRECTION('center_axis',(0.,0.,-1.));
#382=DIRECTION('ref_axis',(0.70710678118655,0.707106781186545,0.));
#383=DIRECTION('',(0.,0.,-1.));
#384=DIRECTION('center_axis',(0.,0.,1.));
#385=DIRECTION('ref_axis',(0.70710678118655,0.707106781186545,0.));
#386=DIRECTION('',(0.,0.,1.));
#387=DIRECTION('center_axis',(-2.11471052309554E-16,1.,0.));
#388=DIRECTION('ref_axis',(0.,0.,1.));
#389=DIRECTION('',(-1.,-2.11471052309554E-16,0.));
#390=DIRECTION('',(0.,0.,-1.));
#391=DIRECTION('',(1.,2.11471052309554E-16,0.));
#392=DIRECTION('center_axis',(0.,0.,1.));
#393=DIRECTION('ref_axis',(1.,0.,0.));
#394=DIRECTION('',(-4.44089209850062E-16,1.,0.));
#395=DIRECTION('center_axis',(0.,0.,1.));
#396=DIRECTION('ref_axis',(0.707106781186546,-0.707106781186549,0.));
#397=DIRECTION('',(1.,0.,0.));
#398=DIRECTION('center_axis',(0.,0.,1.));
#399=DIRECTION('ref_axis',(-0.707106781186548,-0.707106781186547,0.));
#400=DIRECTION('',(3.06161699786838E-16,-1.,0.));
#401=DIRECTION('center_axis',(0.,0.,1.));
#402=DIRECTION('ref_axis',(-0.707106781186548,0.707106781186547,0.));
#403=DIRECTION('center_axis',(0.,0.,1.));
#404=DIRECTION('ref_axis',(1.,0.,0.));
#405=DIRECTION('center_axis',(0.,0.,1.));
#406=DIRECTION('ref_axis',(1.,0.,0.));
#407=DIRECTION('',(1.,0.,0.));
#408=DIRECTION('center_axis',(0.,0.,1.));
#409=DIRECTION('ref_axis',(0.,-1.,0.));
#410=DIRECTION('',(-1.,-2.96059473233375E-16,0.));
#411=DIRECTION('center_axis',(0.,0.,1.));
#412=DIRECTION('ref_axis',(0.,1.,0.));
#413=DIRECTION('center_axis',(0.,0.,1.));
#414=DIRECTION('ref_axis',(0.707106781186546,-0.707106781186549,0.));
#415=DIRECTION('center_axis',(0.,0.,-1.));
#416=DIRECTION('ref_axis',(0.707106781186546,-0.707106781186549,0.));
#417=DIRECTION('',(0.,0.,-1.));
#418=DIRECTION('',(0.,0.,1.));
#419=DIRECTION('center_axis',(0.,-1.,0.));
#420=DIRECTION('ref_axis',(0.,0.,-1.));
#421=DIRECTION('',(-1.,0.,0.));
#422=DIRECTION('',(0.,0.,1.));
#423=DIRECTION('center_axis',(0.,0.,1.));
#424=DIRECTION('ref_axis',(-0.707106781186548,-0.707106781186547,0.));
#425=DIRECTION('center_axis',(0.,0.,-1.));
#426=DIRECTION('ref_axis',(-0.707106781186548,-0.707106781186547,0.));
#427=DIRECTION('',(0.,0.,-1.));
#428=DIRECTION('center_axis',(0.,0.,1.));
#429=DIRECTION('ref_axis',(-0.707106781186548,0.707106781186547,0.));
#430=DIRECTION('center_axis',(0.,0.,-1.));
#431=DIRECTION('ref_axis',(-0.707106781186548,0.707106781186547,0.));
#432=DIRECTION('',(0.,0.,1.));
#433=DIRECTION('center_axis',(0.,0.,1.));
#434=DIRECTION('ref_axis',(1.,0.,0.));
#435=DIRECTION('center_axis',(0.,0.,-1.));
#436=DIRECTION('ref_axis',(1.,0.,0.));
#437=DIRECTION('center_axis',(0.,0.,-1.));
#438=DIRECTION('ref_axis',(1.,0.,0.));
#439=DIRECTION('',(0.,0.,-1.));
#440=DIRECTION('center_axis',(0.,0.,1.));
#441=DIRECTION('ref_axis',(1.,0.,0.));
#442=DIRECTION('center_axis',(0.,0.,-1.));
#443=DIRECTION('ref_axis',(1.,0.,0.));
#444=DIRECTION('center_axis',(0.,0.,-1.));
#445=DIRECTION('ref_axis',(1.,0.,0.));
#446=DIRECTION('',(0.,0.,-1.));
#447=DIRECTION('center_axis',(-2.96059473233375E-16,1.,0.));
#448=DIRECTION('ref_axis',(0.,0.,1.));
#449=DIRECTION('',(0.,0.,-1.));
#450=DIRECTION('',(1.,2.96059473233375E-16,0.));
#451=DIRECTION('',(0.,0.,-1.));
#452=DIRECTION('center_axis',(0.,0.,-1.));
#453=DIRECTION('ref_axis',(0.,1.,0.));
#454=DIRECTION('center_axis',(0.,0.,-1.));
#455=DIRECTION('ref_axis',(0.,1.,0.));
#456=DIRECTION('',(0.,0.,-1.));
#457=DIRECTION('center_axis',(0.,-1.,0.));
#458=DIRECTION('ref_axis',(0.,0.,-1.));
#459=DIRECTION('',(-1.,0.,0.));
#460=DIRECTION('',(0.,0.,-1.));
#461=DIRECTION('center_axis',(0.,0.,-1.));
#462=DIRECTION('ref_axis',(0.,-1.,0.));
#463=DIRECTION('center_axis',(0.,0.,-1.));
#464=DIRECTION('ref_axis',(0.,-1.,0.));
#465=DIRECTION('center_axis',(-1.,-3.06161699786838E-16,0.));
#466=DIRECTION('ref_axis',(0.,0.,1.));
#467=DIRECTION('',(-3.06161699786838E-16,1.,0.));
#468=DIRECTION('center_axis',(1.,4.44089209850062E-16,0.));
#469=DIRECTION('ref_axis',(0.,0.,-1.));
#470=DIRECTION('',(4.44089209850062E-16,-1.,0.));
#471=DIRECTION('center_axis',(0.,0.,1.));
#472=DIRECTION('ref_axis',(1.,0.,0.));
#473=CARTESIAN_POINT('',(0.,0.,0.));
#474=CARTESIAN_POINT('Origin',(80.,36.,0.));
#475=CARTESIAN_POINT('',(80.,40.,4.));
#476=CARTESIAN_POINT('',(84.,36.,4.));
#477=CARTESIAN_POINT('Origin',(80.,36.,4.));
#478=CARTESIAN_POINT('',(84.,36.,0.));
#479=CARTESIAN_POINT('',(84.,36.,0.));
#480=CARTESIAN_POINT('',(80.,40.,0.));
#481=CARTESIAN_POINT('Origin',(80.,36.,0.));
#482=CARTESIAN_POINT('',(80.,40.,0.));
#483=CARTESIAN_POINT('Origin',(-1.22464679914735E-14,40.,0.));
#484=CARTESIAN_POINT('',(3.99999999999999,40.,0.));
#485=CARTESIAN_POINT('',(84.,40.,0.));
#486=CARTESIAN_POINT('',(3.99999999999999,40.,4.));
#487=CARTESIAN_POINT('',(3.99999999999999,40.,0.));
#488=CARTESIAN_POINT('',(84.,40.,4.));
#489=CARTESIAN_POINT('Origin',(42.,20.,0.));
#490=CARTESIAN_POINT('',(84.,4.,0.));
#491=CARTESIAN_POINT('',(84.,0.,0.));
#492=CARTESIAN_POINT('',(80.,0.,0.));
#493=CARTESIAN_POINT('Origin',(80.,4.,0.));
#494=CARTESIAN_POINT('',(4.,0.,0.));
#495=CARTESIAN_POINT('',(0.,0.,0.));
#496=CARTESIAN_POINT('',(-1.22464679914735E-15,4.,0.));
#497=CARTESIAN_POINT('Origin',(4.,4.,0.));
#498=CARTESIAN_POINT('',(-1.10218211923262E-14,36.,0.));
#499=CARTESIAN_POINT('',(-1.22464679914735E-14,40.,0.));
#500=CARTESIAN_POINT('Origin',(3.99999999999999,36.,0.));
#501=CARTESIAN_POINT('',(59.8,7.50000000000001,0.));
#502=CARTESIAN_POINT('Origin',(64.,7.50000000000001,0.));
#503=CARTESIAN_POINT('',(59.8,32.5,0.));
#504=CARTESIAN_POINT('Origin',(64.,32.5,0.));
#505=CARTESIAN_POINT('',(15.,15.8,0.));
#506=CARTESIAN_POINT('',(30.,15.8,0.));
#507=CARTESIAN_POINT('',(28.5,15.8,0.));
#508=CARTESIAN_POINT('',(30.,24.2,0.));
#509=CARTESIAN_POINT('Origin',(30.,20.,0.));
#510=CARTESIAN_POINT('',(15.,24.2,0.));
#511=CARTESIAN_POINT('',(36.,24.2,0.));
#512=CARTESIAN_POINT('Origin',(15.,20.,0.));
#513=CARTESIAN_POINT('Origin',(80.,4.,0.));
#514=CARTESIAN_POINT('',(84.,4.,4.));
#515=CARTESIAN_POINT('',(80.,0.,4.));
#516=CARTESIAN_POINT('Origin',(80.,4.,4.));
#517=CARTESIAN_POINT('',(80.,0.,0.));
#518=CARTESIAN_POINT('',(84.,4.,0.));
#519=CARTESIAN_POINT('Origin',(84.,0.,0.));
#520=CARTESIAN_POINT('',(4.,0.,4.));
#521=CARTESIAN_POINT('',(0.,0.,4.));
#522=CARTESIAN_POINT('',(4.,0.,0.));
#523=CARTESIAN_POINT('Origin',(4.,4.,0.));
#524=CARTESIAN_POINT('',(-1.22464679914735E-15,4.,4.));
#525=CARTESIAN_POINT('Origin',(4.,4.,4.));
#526=CARTESIAN_POINT('',(-1.11022302462516E-15,4.,0.));
#527=CARTESIAN_POINT('Origin',(3.99999999999999,36.,0.));
#528=CARTESIAN_POINT('',(-1.10218211923262E-14,36.,4.));
#529=CARTESIAN_POINT('Origin',(3.99999999999999,36.,4.));
#530=CARTESIAN_POINT('',(-1.11022302462516E-14,36.,0.));
#531=CARTESIAN_POINT('Origin',(64.,7.50000000000001,-89.1235738145825));
#532=CARTESIAN_POINT('',(68.2,7.50000000000001,4.));
#533=CARTESIAN_POINT('',(59.8,7.50000000000001,4.));
#534=CARTESIAN_POINT('Origin',(64.,7.50000000000001,4.));
#535=CARTESIAN_POINT('Origin',(64.,7.50000000000001,4.));
#536=CARTESIAN_POINT('',(59.8,7.50000000000001,-89.1235738145825));
#537=CARTESIAN_POINT('Origin',(64.,32.5,-89.1235738145825));
#538=CARTESIAN_POINT('',(68.2,32.5,4.));
#539=CARTESIAN_POINT('',(59.8,32.5,4.));
#540=CARTESIAN_POINT('Origin',(64.,32.5,4.));
#541=CARTESIAN_POINT('Origin',(64.,32.5,4.));
#542=CARTESIAN_POINT('',(59.8,32.5,-89.1235738145825));
#543=CARTESIAN_POINT('Origin',(30.,24.2,4.));
#544=CARTESIAN_POINT('',(30.,24.2,4.));
#545=CARTESIAN_POINT('',(30.,24.2,4.));
#546=CARTESIAN_POINT('',(15.,24.2,4.));
#547=CARTESIAN_POINT('',(36.,24.2,4.));
#548=CARTESIAN_POINT('',(15.,24.2,4.));
#549=CARTESIAN_POINT('Origin',(15.,20.,4.));
#550=CARTESIAN_POINT('',(15.,15.8,4.));
#551=CARTESIAN_POINT('Origin',(15.,20.,4.));
#552=CARTESIAN_POINT('',(15.,15.8,4.));
#553=CARTESIAN_POINT('Origin',(15.,15.8,4.));
#554=CARTESIAN_POINT('',(30.,15.8,4.));
#555=CARTESIAN_POINT('',(28.5,15.8,4.));
#556=CARTESIAN_POINT('',(30.,15.8,4.));
#557=CARTESIAN_POINT('Origin',(30.,20.,4.));
#558=CARTESIAN_POINT('Origin',(30.,20.,4.));
#559=CARTESIAN_POINT('Origin',(0.,0.,0.));
#560=CARTESIAN_POINT('',(-1.22464679914735E-14,40.,4.));
#561=CARTESIAN_POINT('Origin',(84.,40.,0.));
#562=CARTESIAN_POINT('',(84.,0.,4.));
#563=CARTESIAN_POINT('Origin',(42.,20.,4.));
#564=UNCERTAINTY_MEASURE_WITH_UNIT(LENGTH_MEASURE(0.01),#568,
'DISTANCE_ACCURACY_VALUE',
'Maximum model space distance between geometric entities at asserted c
onnectivities');
#565=UNCERTAINTY_MEASURE_WITH_UNIT(LENGTH_MEASURE(0.01),#568,
'DISTANCE_ACCURACY_VALUE',
'Maximum model space distance between geometric entities at asserted c
onnectivities');
#566=(
GEOMETRIC_REPRESENTATION_CONTEXT(3)
GLOBAL_UNCERTAINTY_ASSIGNED_CONTEXT((#564))
GLOBAL_UNIT_ASSIGNED_CONTEXT((#568,#571,#570))
REPRESENTATION_CONTEXT('','3D')
);
#567=(
GEOMETRIC_REPRESENTATION_CONTEXT(3)
GLOBAL_UNCERTAINTY_ASSIGNED_CONTEXT((#565))
GLOBAL_UNIT_ASSIGNED_CONTEXT((#568,#571,#570))
REPRESENTATION_CONTEXT('','3D')
);
#568=(
LENGTH_UNIT()
NAMED_UNIT(*)
SI_UNIT(.MILLI.,.METRE.)
);
#569=(
LENGTH_UNIT()
NAMED_UNIT(*)
SI_UNIT(.CENTI.,.METRE.)
);
#570=(
NAMED_UNIT(*)
SI_UNIT($,.STERADIAN.)
SOLID_ANGLE_UNIT()
);
#571=(
NAMED_UNIT(*)
PLANE_ANGLE_UNIT()
SI_UNIT($,.RADIAN.)
);
#572=SHAPE_DEFINITION_REPRESENTATION(#573,#574);
#573=PRODUCT_DEFINITION_SHAPE('',$,#576);
#574=SHAPE_REPRESENTATION('',(#342),#566);
#575=PRODUCT_DEFINITION_CONTEXT('part definition',#580,'design');
#576=PRODUCT_DEFINITION('22277',
'22277 KriTec Vario Lasche 8 84x40 St wei\X\DFaluminium \X\E4hnl. RAL 
9006',#577,#575);
#577=PRODUCT_DEFINITION_FORMATION('',$,#582);
#578=PRODUCT_RELATED_PRODUCT_CATEGORY(
'22277 KriTec Vario Lasche 8 84x40 St wei\X\DFaluminium \X\E4hnl. RAL 
9006',
'22277 KriTec Vario Lasche 8 84x40 St wei\X\DFaluminium \X\E4hnl. RAL 
9006',(#582));
#579=APPLICATION_PROTOCOL_DEFINITION('international standard',
'automotive_design',2009,#580);
#580=APPLICATION_CONTEXT(
'Core Data for Automotive Mechanical Design Process');
#581=PRODUCT_CONTEXT('part definition',#580,'mechanical');
#582=PRODUCT('22277',
'22277 KriTec Vario Lasche 8 84x40 St wei\X\DFaluminium \X\E4hnl. RAL 
9006','KriTec Vario Lasche 8 84x40 St wei\X\DFaluminium \X\E4hnlich RA
L 9006',(#581));
#583=PRESENTATION_STYLE_ASSIGNMENT((#584));
#584=SURFACE_STYLE_USAGE(.BOTH.,#585);
#585=SURFACE_SIDE_STYLE('',(#586));
#586=SURFACE_STYLE_FILL_AREA(#587);
#587=FILL_AREA_STYLE('',(#588));
#588=FILL_AREA_STYLE_COLOUR('',#589);
#589=COLOUR_RGB('',0.650980392156863,0.670588235294118,0.709803921568627);
ENDSEC;
END-ISO-10303-21;
