ISO-10303-21;
HEADER;
/* Generated by software containing ST-Developer
 * from STEP Tools, Inc. (www.steptools.com) 
 */

FILE_DESCRIPTION(
/* description */ ('KriTec Laufrolle D14 Rundschliff, VA rostfrei'),
/* implementation_level */ '2;1');

FILE_NAME(
/* name */ 
'S:\\Bilder_neu\\22193_KriTec_Laufrolle_D14_Rundschliff_VA_rostfrei\\I
nventordateien\\22193_KriTec_Laufrolle_D14_Rundschliff_VA_rostfrei.stp',

/* time_stamp */ '2021-04-13T10:39:20+02:00',
/* author */ ('jendrek'),
/* organization */ (''),
/* preprocessor_version */ 'ST-DEVELOPER v17',
/* originating_system */ 'Autodesk Inventor 2018',
/* authorisation */ '');

FILE_SCHEMA (('AUTOMOTIVE_DESIGN { 1 0 10303 214 3 1 1 }'));
ENDSEC;

DATA;
#10=MECHANICAL_DESIGN_GEOMETRIC_PRESENTATION_REPRESENTATION('',(#13),#482);
#11=SHAPE_REPRESENTATION_RELATIONSHIP('SRR','None',#489,#12);
#12=ADVANCED_BREP_SHAPE_REPRESENTATION('',(#14),#481);
#13=STYLED_ITEM('',(#498),#14);
#14=MANIFOLD_SOLID_BREP('Volumenk\X\F6rper2',#253);
#15=TOROIDAL_SURFACE('',#309,24.,7.);
#16=FACE_BOUND('',#46,.T.);
#17=FACE_BOUND('',#49,.T.);
#18=FACE_BOUND('',#53,.T.);
#19=FACE_BOUND('',#57,.T.);
#20=PLANE('',#279);
#21=PLANE('',#284);
#22=PLANE('',#295);
#23=PLANE('',#306);
#24=CYLINDRICAL_SURFACE('',#277,6.);
#25=CYLINDRICAL_SURFACE('',#291,19.95);
#26=CYLINDRICAL_SURFACE('',#302,19.9500000000001);
#27=CYLINDRICAL_SURFACE('',#311,8.25);
#28=CYLINDRICAL_SURFACE('',#312,8.25);
#29=FACE_OUTER_BOUND('',#43,.T.);
#30=FACE_OUTER_BOUND('',#44,.T.);
#31=FACE_OUTER_BOUND('',#45,.T.);
#32=FACE_OUTER_BOUND('',#47,.T.);
#33=FACE_OUTER_BOUND('',#48,.T.);
#34=FACE_OUTER_BOUND('',#50,.T.);
#35=FACE_OUTER_BOUND('',#51,.T.);
#36=FACE_OUTER_BOUND('',#52,.T.);
#37=FACE_OUTER_BOUND('',#54,.T.);
#38=FACE_OUTER_BOUND('',#55,.T.);
#39=FACE_OUTER_BOUND('',#56,.T.);
#40=FACE_OUTER_BOUND('',#58,.T.);
#41=FACE_OUTER_BOUND('',#59,.T.);
#42=FACE_OUTER_BOUND('',#60,.T.);
#43=EDGE_LOOP('',(#165,#166,#167,#168,#169));
#44=EDGE_LOOP('',(#170,#171,#172,#173,#174));
#45=EDGE_LOOP('',(#175,#176));
#46=EDGE_LOOP('',(#177));
#47=EDGE_LOOP('',(#178,#179,#180,#181));
#48=EDGE_LOOP('',(#182,#183));
#49=EDGE_LOOP('',(#184));
#50=EDGE_LOOP('',(#185,#186,#187,#188,#189));
#51=EDGE_LOOP('',(#190,#191,#192,#193,#194,#195,#196));
#52=EDGE_LOOP('',(#197));
#53=EDGE_LOOP('',(#198,#199));
#54=EDGE_LOOP('',(#200,#201,#202,#203,#204));
#55=EDGE_LOOP('',(#205,#206,#207,#208,#209,#210,#211));
#56=EDGE_LOOP('',(#212));
#57=EDGE_LOOP('',(#213,#214));
#58=EDGE_LOOP('',(#215,#216,#217,#218,#219,#220,#221,#222));
#59=EDGE_LOOP('',(#223,#224,#225,#226,#227,#228));
#60=EDGE_LOOP('',(#229,#230,#231,#232,#233,#234));
#61=LINE('',#411,#70);
#62=LINE('',#416,#71);
#63=LINE('',#424,#72);
#64=LINE('',#437,#73);
#65=LINE('',#441,#74);
#66=LINE('',#458,#75);
#67=LINE('',#466,#76);
#68=LINE('',#476,#77);
#69=LINE('',#478,#78);
#70=VECTOR('',#321,6.25);
#71=VECTOR('',#328,6.);
#72=VECTOR('',#337,6.25);
#73=VECTOR('',#352,19.7);
#74=VECTOR('',#357,19.95);
#75=VECTOR('',#376,19.7000000000001);
#76=VECTOR('',#385,19.9500000000001);
#77=VECTOR('',#400,8.25);
#78=VECTOR('',#403,8.25);
#79=CIRCLE('',#274,6.);
#80=CIRCLE('',#275,6.);
#81=CIRCLE('',#276,6.5);
#82=CIRCLE('',#278,6.);
#83=CIRCLE('',#280,8.25);
#84=CIRCLE('',#281,8.25);
#85=CIRCLE('',#283,6.5);
#86=CIRCLE('',#285,8.25);
#87=CIRCLE('',#286,8.25);
#88=CIRCLE('',#288,19.95);
#89=CIRCLE('',#289,19.95);
#90=CIRCLE('',#290,19.45);
#91=CIRCLE('',#292,19.95);
#92=CIRCLE('',#293,19.95);
#93=CIRCLE('',#294,19.95);
#94=CIRCLE('',#296,8.25);
#95=CIRCLE('',#297,8.25);
#96=CIRCLE('',#299,19.9500000000001);
#97=CIRCLE('',#300,19.9500000000001);
#98=CIRCLE('',#301,19.4500000000001);
#99=CIRCLE('',#303,19.9500000000001);
#100=CIRCLE('',#304,19.9500000000001);
#101=CIRCLE('',#305,19.9500000000001);
#102=CIRCLE('',#307,8.25);
#103=CIRCLE('',#308,8.25);
#104=CIRCLE('',#310,7.);
#105=VERTEX_POINT('',#406);
#106=VERTEX_POINT('',#407);
#107=VERTEX_POINT('',#410);
#108=VERTEX_POINT('',#414);
#109=VERTEX_POINT('',#418);
#110=VERTEX_POINT('',#419);
#111=VERTEX_POINT('',#423);
#112=VERTEX_POINT('',#427);
#113=VERTEX_POINT('',#428);
#114=VERTEX_POINT('',#432);
#115=VERTEX_POINT('',#433);
#116=VERTEX_POINT('',#436);
#117=VERTEX_POINT('',#440);
#118=VERTEX_POINT('',#442);
#119=VERTEX_POINT('',#444);
#120=VERTEX_POINT('',#448);
#121=VERTEX_POINT('',#449);
#122=VERTEX_POINT('',#453);
#123=VERTEX_POINT('',#454);
#124=VERTEX_POINT('',#457);
#125=VERTEX_POINT('',#461);
#126=VERTEX_POINT('',#462);
#127=VERTEX_POINT('',#464);
#128=VERTEX_POINT('',#469);
#129=VERTEX_POINT('',#470);
#130=EDGE_CURVE('',#105,#106,#79,.T.);
#131=EDGE_CURVE('',#106,#105,#80,.T.);
#132=EDGE_CURVE('',#105,#107,#61,.T.);
#133=EDGE_CURVE('',#107,#107,#81,.T.);
#134=EDGE_CURVE('',#108,#108,#82,.T.);
#135=EDGE_CURVE('',#108,#106,#62,.T.);
#136=EDGE_CURVE('',#109,#110,#83,.T.);
#137=EDGE_CURVE('',#110,#109,#84,.T.);
#138=EDGE_CURVE('',#108,#111,#63,.T.);
#139=EDGE_CURVE('',#111,#111,#85,.T.);
#140=EDGE_CURVE('',#112,#113,#86,.T.);
#141=EDGE_CURVE('',#113,#112,#87,.T.);
#142=EDGE_CURVE('',#114,#115,#88,.T.);
#143=EDGE_CURVE('',#115,#114,#89,.T.);
#144=EDGE_CURVE('',#114,#116,#64,.T.);
#145=EDGE_CURVE('',#116,#116,#90,.T.);
#146=EDGE_CURVE('',#115,#117,#65,.T.);
#147=EDGE_CURVE('',#117,#118,#91,.T.);
#148=EDGE_CURVE('',#118,#119,#92,.T.);
#149=EDGE_CURVE('',#119,#117,#93,.T.);
#150=EDGE_CURVE('',#120,#121,#94,.T.);
#151=EDGE_CURVE('',#121,#120,#95,.T.);
#152=EDGE_CURVE('',#122,#123,#96,.T.);
#153=EDGE_CURVE('',#123,#122,#97,.T.);
#154=EDGE_CURVE('',#122,#124,#66,.T.);
#155=EDGE_CURVE('',#124,#124,#98,.T.);
#156=EDGE_CURVE('',#125,#126,#99,.T.);
#157=EDGE_CURVE('',#127,#125,#100,.T.);
#158=EDGE_CURVE('',#127,#123,#67,.T.);
#159=EDGE_CURVE('',#126,#127,#101,.T.);
#160=EDGE_CURVE('',#128,#129,#102,.T.);
#161=EDGE_CURVE('',#129,#128,#103,.T.);
#162=EDGE_CURVE('',#119,#126,#104,.T.);
#163=EDGE_CURVE('',#113,#121,#68,.T.);
#164=EDGE_CURVE('',#129,#110,#69,.T.);
#165=ORIENTED_EDGE('',*,*,#130,.T.);
#166=ORIENTED_EDGE('',*,*,#131,.T.);
#167=ORIENTED_EDGE('',*,*,#132,.T.);
#168=ORIENTED_EDGE('',*,*,#133,.T.);
#169=ORIENTED_EDGE('',*,*,#132,.F.);
#170=ORIENTED_EDGE('',*,*,#134,.F.);
#171=ORIENTED_EDGE('',*,*,#135,.T.);
#172=ORIENTED_EDGE('',*,*,#130,.F.);
#173=ORIENTED_EDGE('',*,*,#131,.F.);
#174=ORIENTED_EDGE('',*,*,#135,.F.);
#175=ORIENTED_EDGE('',*,*,#136,.F.);
#176=ORIENTED_EDGE('',*,*,#137,.F.);
#177=ORIENTED_EDGE('',*,*,#133,.F.);
#178=ORIENTED_EDGE('',*,*,#134,.T.);
#179=ORIENTED_EDGE('',*,*,#138,.T.);
#180=ORIENTED_EDGE('',*,*,#139,.T.);
#181=ORIENTED_EDGE('',*,*,#138,.F.);
#182=ORIENTED_EDGE('',*,*,#140,.T.);
#183=ORIENTED_EDGE('',*,*,#141,.T.);
#184=ORIENTED_EDGE('',*,*,#139,.F.);
#185=ORIENTED_EDGE('',*,*,#142,.T.);
#186=ORIENTED_EDGE('',*,*,#143,.T.);
#187=ORIENTED_EDGE('',*,*,#144,.T.);
#188=ORIENTED_EDGE('',*,*,#145,.T.);
#189=ORIENTED_EDGE('',*,*,#144,.F.);
#190=ORIENTED_EDGE('',*,*,#142,.F.);
#191=ORIENTED_EDGE('',*,*,#143,.F.);
#192=ORIENTED_EDGE('',*,*,#146,.T.);
#193=ORIENTED_EDGE('',*,*,#147,.T.);
#194=ORIENTED_EDGE('',*,*,#148,.T.);
#195=ORIENTED_EDGE('',*,*,#149,.T.);
#196=ORIENTED_EDGE('',*,*,#146,.F.);
#197=ORIENTED_EDGE('',*,*,#145,.F.);
#198=ORIENTED_EDGE('',*,*,#150,.F.);
#199=ORIENTED_EDGE('',*,*,#151,.F.);
#200=ORIENTED_EDGE('',*,*,#152,.T.);
#201=ORIENTED_EDGE('',*,*,#153,.T.);
#202=ORIENTED_EDGE('',*,*,#154,.T.);
#203=ORIENTED_EDGE('',*,*,#155,.T.);
#204=ORIENTED_EDGE('',*,*,#154,.F.);
#205=ORIENTED_EDGE('',*,*,#156,.F.);
#206=ORIENTED_EDGE('',*,*,#157,.F.);
#207=ORIENTED_EDGE('',*,*,#158,.T.);
#208=ORIENTED_EDGE('',*,*,#152,.F.);
#209=ORIENTED_EDGE('',*,*,#153,.F.);
#210=ORIENTED_EDGE('',*,*,#158,.F.);
#211=ORIENTED_EDGE('',*,*,#159,.F.);
#212=ORIENTED_EDGE('',*,*,#155,.F.);
#213=ORIENTED_EDGE('',*,*,#160,.T.);
#214=ORIENTED_EDGE('',*,*,#161,.T.);
#215=ORIENTED_EDGE('',*,*,#148,.F.);
#216=ORIENTED_EDGE('',*,*,#147,.F.);
#217=ORIENTED_EDGE('',*,*,#149,.F.);
#218=ORIENTED_EDGE('',*,*,#162,.T.);
#219=ORIENTED_EDGE('',*,*,#159,.T.);
#220=ORIENTED_EDGE('',*,*,#157,.T.);
#221=ORIENTED_EDGE('',*,*,#156,.T.);
#222=ORIENTED_EDGE('',*,*,#162,.F.);
#223=ORIENTED_EDGE('',*,*,#140,.F.);
#224=ORIENTED_EDGE('',*,*,#141,.F.);
#225=ORIENTED_EDGE('',*,*,#163,.T.);
#226=ORIENTED_EDGE('',*,*,#151,.T.);
#227=ORIENTED_EDGE('',*,*,#150,.T.);
#228=ORIENTED_EDGE('',*,*,#163,.F.);
#229=ORIENTED_EDGE('',*,*,#160,.F.);
#230=ORIENTED_EDGE('',*,*,#161,.F.);
#231=ORIENTED_EDGE('',*,*,#164,.T.);
#232=ORIENTED_EDGE('',*,*,#137,.T.);
#233=ORIENTED_EDGE('',*,*,#136,.T.);
#234=ORIENTED_EDGE('',*,*,#164,.F.);
#235=CONICAL_SURFACE('',#273,6.25,0.785398163397451);
#236=CONICAL_SURFACE('',#282,6.25,0.785398163397448);
#237=CONICAL_SURFACE('',#287,19.7,0.785398163397448);
#238=CONICAL_SURFACE('',#298,19.7000000000001,0.785398163397442);
#239=ADVANCED_FACE('',(#29),#235,.F.);
#240=ADVANCED_FACE('',(#30),#24,.F.);
#241=ADVANCED_FACE('',(#31,#16),#20,.T.);
#242=ADVANCED_FACE('',(#32),#236,.F.);
#243=ADVANCED_FACE('',(#33,#17),#21,.T.);
#244=ADVANCED_FACE('',(#34),#237,.T.);
#245=ADVANCED_FACE('',(#35),#25,.T.);
#246=ADVANCED_FACE('',(#36,#18),#22,.T.);
#247=ADVANCED_FACE('',(#37),#238,.T.);
#248=ADVANCED_FACE('',(#38),#26,.T.);
#249=ADVANCED_FACE('',(#39,#19),#23,.T.);
#250=ADVANCED_FACE('',(#40),#15,.F.);
#251=ADVANCED_FACE('',(#41),#27,.T.);
#252=ADVANCED_FACE('',(#42),#28,.T.);
#253=CLOSED_SHELL('',(#239,#240,#241,#242,#243,#244,#245,#246,#247,#248,
#249,#250,#251,#252));
#254=DERIVED_UNIT_ELEMENT(#256,1.);
#255=DERIVED_UNIT_ELEMENT(#484,3.);
#256=(
MASS_UNIT()
NAMED_UNIT(*)
SI_UNIT($,.GRAM.)
);
#257=DERIVED_UNIT((#254,#255));
#258=MEASURE_REPRESENTATION_ITEM('density measure',
POSITIVE_RATIO_MEASURE(7.86),#257);
#259=PROPERTY_DEFINITION_REPRESENTATION(#264,#261);
#260=PROPERTY_DEFINITION_REPRESENTATION(#265,#262);
#261=REPRESENTATION('material name',(#263),#481);
#262=REPRESENTATION('density',(#258),#481);
#263=DESCRIPTIVE_REPRESENTATION_ITEM('1.4301 X5CrNi10-10 A2',
'1.4301 X5CrNi10-10 A2');
#264=PROPERTY_DEFINITION('material property','material name',#491);
#265=PROPERTY_DEFINITION('material property','density of part',#491);
#266=DATE_TIME_ROLE('creation_date');
#267=APPLIED_DATE_AND_TIME_ASSIGNMENT(#268,#266,(#491));
#268=DATE_AND_TIME(#269,#270);
#269=CALENDAR_DATE(2017,4,12);
#270=LOCAL_TIME(12,27,13.,#271);
#271=COORDINATED_UNIVERSAL_TIME_OFFSET(0,0,.BEHIND.);
#272=AXIS2_PLACEMENT_3D('placement',#404,#313,#314);
#273=AXIS2_PLACEMENT_3D('',#405,#315,#316);
#274=AXIS2_PLACEMENT_3D('',#408,#317,#318);
#275=AXIS2_PLACEMENT_3D('',#409,#319,#320);
#276=AXIS2_PLACEMENT_3D('',#412,#322,#323);
#277=AXIS2_PLACEMENT_3D('',#413,#324,#325);
#278=AXIS2_PLACEMENT_3D('',#415,#326,#327);
#279=AXIS2_PLACEMENT_3D('',#417,#329,#330);
#280=AXIS2_PLACEMENT_3D('',#420,#331,#332);
#281=AXIS2_PLACEMENT_3D('',#421,#333,#334);
#282=AXIS2_PLACEMENT_3D('',#422,#335,#336);
#283=AXIS2_PLACEMENT_3D('',#425,#338,#339);
#284=AXIS2_PLACEMENT_3D('',#426,#340,#341);
#285=AXIS2_PLACEMENT_3D('',#429,#342,#343);
#286=AXIS2_PLACEMENT_3D('',#430,#344,#345);
#287=AXIS2_PLACEMENT_3D('',#431,#346,#347);
#288=AXIS2_PLACEMENT_3D('',#434,#348,#349);
#289=AXIS2_PLACEMENT_3D('',#435,#350,#351);
#290=AXIS2_PLACEMENT_3D('',#438,#353,#354);
#291=AXIS2_PLACEMENT_3D('',#439,#355,#356);
#292=AXIS2_PLACEMENT_3D('',#443,#358,#359);
#293=AXIS2_PLACEMENT_3D('',#445,#360,#361);
#294=AXIS2_PLACEMENT_3D('',#446,#362,#363);
#295=AXIS2_PLACEMENT_3D('',#447,#364,#365);
#296=AXIS2_PLACEMENT_3D('',#450,#366,#367);
#297=AXIS2_PLACEMENT_3D('',#451,#368,#369);
#298=AXIS2_PLACEMENT_3D('',#452,#370,#371);
#299=AXIS2_PLACEMENT_3D('',#455,#372,#373);
#300=AXIS2_PLACEMENT_3D('',#456,#374,#375);
#301=AXIS2_PLACEMENT_3D('',#459,#377,#378);
#302=AXIS2_PLACEMENT_3D('',#460,#379,#380);
#303=AXIS2_PLACEMENT_3D('',#463,#381,#382);
#304=AXIS2_PLACEMENT_3D('',#465,#383,#384);
#305=AXIS2_PLACEMENT_3D('',#467,#386,#387);
#306=AXIS2_PLACEMENT_3D('',#468,#388,#389);
#307=AXIS2_PLACEMENT_3D('',#471,#390,#391);
#308=AXIS2_PLACEMENT_3D('',#472,#392,#393);
#309=AXIS2_PLACEMENT_3D('',#473,#394,#395);
#310=AXIS2_PLACEMENT_3D('',#474,#396,#397);
#311=AXIS2_PLACEMENT_3D('',#475,#398,#399);
#312=AXIS2_PLACEMENT_3D('',#477,#401,#402);
#313=DIRECTION('axis',(0.,0.,1.));
#314=DIRECTION('refdir',(1.,0.,0.));
#315=DIRECTION('center_axis',(0.,1.,0.));
#316=DIRECTION('ref_axis',(-1.,0.,0.));
#317=DIRECTION('center_axis',(0.,-1.,0.));
#318=DIRECTION('ref_axis',(-1.,0.,0.));
#319=DIRECTION('center_axis',(0.,-1.,0.));
#320=DIRECTION('ref_axis',(-1.,0.,0.));
#321=DIRECTION('',(0.707106781186549,0.707106781186546,-8.65956056235496E-17));
#322=DIRECTION('center_axis',(0.,1.,0.));
#323=DIRECTION('ref_axis',(-1.,0.,0.));
#324=DIRECTION('center_axis',(0.,1.,0.));
#325=DIRECTION('ref_axis',(1.,0.,0.));
#326=DIRECTION('center_axis',(0.,1.,0.));
#327=DIRECTION('ref_axis',(1.,0.,0.));
#328=DIRECTION('',(0.,1.,0.));
#329=DIRECTION('center_axis',(0.,1.,0.));
#330=DIRECTION('ref_axis',(0.,0.,1.));
#331=DIRECTION('center_axis',(0.,-1.,0.));
#332=DIRECTION('ref_axis',(1.,0.,0.));
#333=DIRECTION('center_axis',(0.,-1.,0.));
#334=DIRECTION('ref_axis',(1.,0.,0.));
#335=DIRECTION('center_axis',(0.,-1.,0.));
#336=DIRECTION('ref_axis',(1.,0.,0.));
#337=DIRECTION('',(-0.707106781186548,-0.707106781186547,-8.65956056235494E-17));
#338=DIRECTION('center_axis',(0.,-1.,0.));
#339=DIRECTION('ref_axis',(1.,0.,0.));
#340=DIRECTION('center_axis',(0.,-1.,0.));
#341=DIRECTION('ref_axis',(0.,0.,-1.));
#342=DIRECTION('center_axis',(0.,-1.,0.));
#343=DIRECTION('ref_axis',(1.,0.,0.));
#344=DIRECTION('center_axis',(0.,-1.,0.));
#345=DIRECTION('ref_axis',(1.,0.,0.));
#346=DIRECTION('center_axis',(0.,1.,0.));
#347=DIRECTION('ref_axis',(-1.,0.,0.));
#348=DIRECTION('center_axis',(0.,-1.,0.));
#349=DIRECTION('ref_axis',(-1.,0.,0.));
#350=DIRECTION('center_axis',(0.,-1.,0.));
#351=DIRECTION('ref_axis',(-1.,0.,0.));
#352=DIRECTION('',(-0.707106781186548,-0.707106781186547,8.65956056235493E-17));
#353=DIRECTION('center_axis',(0.,1.,0.));
#354=DIRECTION('ref_axis',(-1.,0.,0.));
#355=DIRECTION('center_axis',(0.,-1.,0.));
#356=DIRECTION('ref_axis',(1.,0.,0.));
#357=DIRECTION('',(0.,1.,0.));
#358=DIRECTION('center_axis',(0.,-1.,0.));
#359=DIRECTION('ref_axis',(1.,0.,0.));
#360=DIRECTION('center_axis',(0.,-1.,0.));
#361=DIRECTION('ref_axis',(1.,0.,0.));
#362=DIRECTION('center_axis',(0.,-1.,0.));
#363=DIRECTION('ref_axis',(1.,0.,0.));
#364=DIRECTION('center_axis',(0.,-1.,0.));
#365=DIRECTION('ref_axis',(0.,0.,-1.));
#366=DIRECTION('center_axis',(0.,-1.,0.));
#367=DIRECTION('ref_axis',(1.,0.,0.));
#368=DIRECTION('center_axis',(0.,-1.,0.));
#369=DIRECTION('ref_axis',(1.,0.,0.));
#370=DIRECTION('center_axis',(0.,-1.,0.));
#371=DIRECTION('ref_axis',(-1.,0.,0.));
#372=DIRECTION('center_axis',(0.,1.,0.));
#373=DIRECTION('ref_axis',(-1.,0.,0.));
#374=DIRECTION('center_axis',(0.,1.,0.));
#375=DIRECTION('ref_axis',(-1.,0.,0.));
#376=DIRECTION('',(-0.707106781186543,0.707106781186552,-8.65956056235488E-17));
#377=DIRECTION('center_axis',(0.,-1.,0.));
#378=DIRECTION('ref_axis',(-1.,0.,0.));
#379=DIRECTION('center_axis',(0.,-1.,0.));
#380=DIRECTION('ref_axis',(1.,0.,0.));
#381=DIRECTION('center_axis',(0.,-1.,0.));
#382=DIRECTION('ref_axis',(1.,0.,0.));
#383=DIRECTION('center_axis',(0.,-1.,0.));
#384=DIRECTION('ref_axis',(1.,0.,0.));
#385=DIRECTION('',(0.,1.,0.));
#386=DIRECTION('center_axis',(0.,-1.,0.));
#387=DIRECTION('ref_axis',(1.,0.,0.));
#388=DIRECTION('center_axis',(0.,1.,0.));
#389=DIRECTION('ref_axis',(0.,0.,1.));
#390=DIRECTION('center_axis',(0.,-1.,0.));
#391=DIRECTION('ref_axis',(1.,0.,0.));
#392=DIRECTION('center_axis',(0.,-1.,0.));
#393=DIRECTION('ref_axis',(1.,0.,0.));
#394=DIRECTION('center_axis',(0.,-1.,0.));
#395=DIRECTION('ref_axis',(0.,0.,-1.));
#396=DIRECTION('center_axis',(1.,0.,1.43254583822601E-16));
#397=DIRECTION('ref_axis',(-1.43254583822601E-16,0.,1.));
#398=DIRECTION('center_axis',(0.,-1.,0.));
#399=DIRECTION('ref_axis',(1.,0.,0.));
#400=DIRECTION('',(0.,1.,0.));
#401=DIRECTION('center_axis',(0.,-1.,0.));
#402=DIRECTION('ref_axis',(1.,0.,0.));
#403=DIRECTION('',(0.,1.,0.));
#404=CARTESIAN_POINT('',(0.,0.,0.));
#405=CARTESIAN_POINT('Origin',(-27.307691900776,-10.0576927176947,0.));
#406=CARTESIAN_POINT('',(-21.307691900776,-10.3076927176947,7.347638E-16));
#407=CARTESIAN_POINT('',(-33.307691900776,-10.3076927176947,7.34788079488412E-16));
#408=CARTESIAN_POINT('Origin',(-27.307691900776,-10.3076927176947,0.));
#409=CARTESIAN_POINT('Origin',(-27.307691900776,-10.3076927176947,0.));
#410=CARTESIAN_POINT('',(-20.807691900776,-9.80769271769468,-7.959941E-16));
#411=CARTESIAN_POINT('',(-21.057691900776,-10.0576927176947,-7.65404249467096E-16));
#412=CARTESIAN_POINT('Origin',(-27.307691900776,-9.80769271769468,0.));
#413=CARTESIAN_POINT('Origin',(-27.307691900776,-69.6743779441212,0.));
#414=CARTESIAN_POINT('',(-33.307691900776,-29.3076927176947,7.347638E-16));
#415=CARTESIAN_POINT('Origin',(-27.307691900776,-29.3076927176947,0.));
#416=CARTESIAN_POINT('',(-33.307691900776,-69.6743779441212,7.34788079488412E-16));
#417=CARTESIAN_POINT('Origin',(-23.182691900776,-9.80769271769468,0.));
#418=CARTESIAN_POINT('',(-19.057691900776,-9.80769271769468,0.));
#419=CARTESIAN_POINT('',(-35.557691900776,-9.80769271769468,-1.01033360929657E-15));
#420=CARTESIAN_POINT('Origin',(-27.307691900776,-9.80769271769468,0.));
#421=CARTESIAN_POINT('Origin',(-27.307691900776,-9.80769271769468,0.));
#422=CARTESIAN_POINT('Origin',(-27.307691900776,-29.5576927176947,0.));
#423=CARTESIAN_POINT('',(-33.807691900776,-29.8076927176947,-7.959941E-16));
#424=CARTESIAN_POINT('',(-33.557691900776,-29.5576927176947,-7.65404249467096E-16));
#425=CARTESIAN_POINT('Origin',(-27.307691900776,-29.8076927176947,0.));
#426=CARTESIAN_POINT('Origin',(-23.182691900776,-29.8076927176947,0.));
#427=CARTESIAN_POINT('',(-19.057691900776,-29.8076927176947,0.));
#428=CARTESIAN_POINT('',(-35.557691900776,-29.8076927176947,-1.01033360929657E-15));
#429=CARTESIAN_POINT('Origin',(-27.307691900776,-29.8076927176947,0.));
#430=CARTESIAN_POINT('Origin',(-27.307691900776,-29.8076927176947,0.));
#431=CARTESIAN_POINT('Origin',(-27.307691900776,-28.5576927176947,0.));
#432=CARTESIAN_POINT('',(-7.35769190077598,-28.3076927176947,2.44309E-15));
#433=CARTESIAN_POINT('',(-47.257691900776,-28.3076927176947,-2.44317036429897E-15));
#434=CARTESIAN_POINT('Origin',(-27.307691900776,-28.3076927176947,0.));
#435=CARTESIAN_POINT('Origin',(-27.307691900776,-28.3076927176947,0.));
#436=CARTESIAN_POINT('',(-7.85769190077598,-28.8076927176947,-2.381859E-15));
#437=CARTESIAN_POINT('',(-7.60769190077597,-28.5576927176947,-2.41255419432029E-15));
#438=CARTESIAN_POINT('Origin',(-27.307691900776,-28.8076927176947,0.));
#439=CARTESIAN_POINT('Origin',(-27.307691900776,-27.1624037363444,0.));
#440=CARTESIAN_POINT('',(-47.257691900776,-25.5171147549941,-2.44317036429897E-15));
#441=CARTESIAN_POINT('',(-47.257691900776,-27.1624037363444,-2.44317036429897E-15));
#442=CARTESIAN_POINT('',(-7.35769190077597,-25.5171147549941,0.));
#443=CARTESIAN_POINT('Origin',(-27.307691900776,-25.5171147549941,0.));
#444=CARTESIAN_POINT('',(-27.307691900776,-25.5171147549941,19.95));
#445=CARTESIAN_POINT('Origin',(-27.307691900776,-25.5171147549941,0.));
#446=CARTESIAN_POINT('Origin',(-27.307691900776,-25.5171147549941,0.));
#447=CARTESIAN_POINT('Origin',(-13.207691900776,-28.8076927176947,0.));
#448=CARTESIAN_POINT('',(-19.057691900776,-28.8076927176947,0.));
#449=CARTESIAN_POINT('',(-35.557691900776,-28.8076927176947,-1.01033360929657E-15));
#450=CARTESIAN_POINT('Origin',(-27.307691900776,-28.8076927176947,0.));
#451=CARTESIAN_POINT('Origin',(-27.307691900776,-28.8076927176947,0.));
#452=CARTESIAN_POINT('Origin',(-27.307691900776,-11.0576927176947,0.));
#453=CARTESIAN_POINT('',(-7.35769190077589,-11.3076927176947,-2.44309E-15));
#454=CARTESIAN_POINT('',(-47.2576919007761,-11.3076927176947,-2.44317036429898E-15));
#455=CARTESIAN_POINT('Origin',(-27.307691900776,-11.3076927176947,0.));
#456=CARTESIAN_POINT('Origin',(-27.307691900776,-11.3076927176947,0.));
#457=CARTESIAN_POINT('',(-7.85769190077588,-10.8076927176947,2.381859E-15));
#458=CARTESIAN_POINT('',(-7.60769190077588,-11.0576927176947,2.4125541943203E-15));
#459=CARTESIAN_POINT('Origin',(-27.307691900776,-10.8076927176947,0.));
#460=CARTESIAN_POINT('Origin',(-27.307691900776,-12.4529816990449,0.));
#461=CARTESIAN_POINT('',(-7.3576919007759,-14.0982706803952,0.));
#462=CARTESIAN_POINT('',(-27.307691900776,-14.0982706803952,19.9500000000001));
#463=CARTESIAN_POINT('Origin',(-27.307691900776,-14.0982706803952,0.));
#464=CARTESIAN_POINT('',(-47.2576919007761,-14.0982706803952,-2.44317036429898E-15));
#465=CARTESIAN_POINT('Origin',(-27.307691900776,-14.0982706803952,0.));
#466=CARTESIAN_POINT('',(-47.2576919007761,-12.4529816990449,-2.44317036429898E-15));
#467=CARTESIAN_POINT('Origin',(-27.307691900776,-14.0982706803952,0.));
#468=CARTESIAN_POINT('Origin',(-13.2076919007759,-10.8076927176947,0.));
#469=CARTESIAN_POINT('',(-19.057691900776,-10.8076927176947,0.));
#470=CARTESIAN_POINT('',(-35.557691900776,-10.8076927176947,-1.01033360929657E-15));
#471=CARTESIAN_POINT('Origin',(-27.307691900776,-10.8076927176947,0.));
#472=CARTESIAN_POINT('Origin',(-27.307691900776,-10.8076927176947,0.));
#473=CARTESIAN_POINT('Origin',(-27.307691900776,-19.8076927176947,0.));
#474=CARTESIAN_POINT('Origin',(-27.307691900776,-19.8076927176947,24.));
#475=CARTESIAN_POINT('Origin',(-27.307691900776,-29.3076927176947,0.));
#476=CARTESIAN_POINT('',(-35.557691900776,-29.3076927176947,-1.01033360929657E-15));
#477=CARTESIAN_POINT('Origin',(-27.307691900776,-10.3076927176947,0.));
#478=CARTESIAN_POINT('',(-35.557691900776,-10.3076927176947,-1.01033360929657E-15));
#479=UNCERTAINTY_MEASURE_WITH_UNIT(LENGTH_MEASURE(0.01),#483,
'DISTANCE_ACCURACY_VALUE',
'Maximum model space distance between geometric entities at asserted c
onnectivities');
#480=UNCERTAINTY_MEASURE_WITH_UNIT(LENGTH_MEASURE(0.01),#483,
'DISTANCE_ACCURACY_VALUE',
'Maximum model space distance between geometric entities at asserted c
onnectivities');
#481=(
GEOMETRIC_REPRESENTATION_CONTEXT(3)
GLOBAL_UNCERTAINTY_ASSIGNED_CONTEXT((#479))
GLOBAL_UNIT_ASSIGNED_CONTEXT((#483,#486,#485))
REPRESENTATION_CONTEXT('','3D')
);
#482=(
GEOMETRIC_REPRESENTATION_CONTEXT(3)
GLOBAL_UNCERTAINTY_ASSIGNED_CONTEXT((#480))
GLOBAL_UNIT_ASSIGNED_CONTEXT((#483,#486,#485))
REPRESENTATION_CONTEXT('','3D')
);
#483=(
LENGTH_UNIT()
NAMED_UNIT(*)
SI_UNIT(.MILLI.,.METRE.)
);
#484=(
LENGTH_UNIT()
NAMED_UNIT(*)
SI_UNIT(.CENTI.,.METRE.)
);
#485=(
NAMED_UNIT(*)
SI_UNIT($,.STERADIAN.)
SOLID_ANGLE_UNIT()
);
#486=(
NAMED_UNIT(*)
PLANE_ANGLE_UNIT()
SI_UNIT($,.RADIAN.)
);
#487=SHAPE_DEFINITION_REPRESENTATION(#488,#489);
#488=PRODUCT_DEFINITION_SHAPE('',$,#491);
#489=SHAPE_REPRESENTATION('',(#272),#481);
#490=PRODUCT_DEFINITION_CONTEXT('part definition',#495,'design');
#491=PRODUCT_DEFINITION('22193','22193',#492,#490);
#492=PRODUCT_DEFINITION_FORMATION('',$,#497);
#493=PRODUCT_RELATED_PRODUCT_CATEGORY('22193','22193',(#497));
#494=APPLICATION_PROTOCOL_DEFINITION('international standard',
'automotive_design',2009,#495);
#495=APPLICATION_CONTEXT(
'Core Data for Automotive Mechanical Design Process');
#496=PRODUCT_CONTEXT('part definition',#495,'mechanical');
#497=PRODUCT('22193','22193',
'KriTec Laufrolle D14 Rundschliff, VA rostfrei',(#496));
#498=PRESENTATION_STYLE_ASSIGNMENT((#499));
#499=SURFACE_STYLE_USAGE(.BOTH.,#500);
#500=SURFACE_SIDE_STYLE('',(#501));
#501=SURFACE_STYLE_FILL_AREA(#502);
#502=FILL_AREA_STYLE('',(#503));
#503=FILL_AREA_STYLE_COLOUR('',#504);
#504=COLOUR_RGB('',0.956862745098039,0.956862745098039,0.956862745098039);
ENDSEC;
END-ISO-10303-21;
