ISO-10303-21;
HEADER;
/* Generated by software containing ST-Developer
 * from STEP Tools, Inc. (www.steptools.com) 
 */

FILE_DESCRIPTION(
/* description */ (''),
/* implementation_level */ '2;1');

FILE_NAME(
/* name */ 
'S:\\Bilder_neu\\22105_KriTec_Abdeckkappe_D30_F_grau_aehnlich_RAL_7042
\\Inventordateien\\22105_KriTec_Abdeckkappe_D30_F_grau_aehnlich_RAL_70
42.stp',
/* time_stamp */ '2020-11-04T11:14:28+01:00',
/* author */ ('jendrek'),
/* organization */ (''),
/* preprocessor_version */ 'ST-DEVELOPER v17',
/* originating_system */ 'Autodesk Inventor 2018',
/* authorisation */ '');

FILE_SCHEMA (('AUTOMOTIVE_DESIGN { 1 0 10303 214 3 1 1 }'));
ENDSEC;

DATA;
#10=MECHANICAL_DESIGN_GEOMETRIC_PRESENTATION_REPRESENTATION('',(#13),#296);
#11=SHAPE_REPRESENTATION_RELATIONSHIP('SRR','None',#303,#12);
#12=ADVANCED_BREP_SHAPE_REPRESENTATION('',(#14),#295);
#13=STYLED_ITEM('',(#312),#14);
#14=MANIFOLD_SOLID_BREP('Volumenk\X\F6rper1',#149);
#15=FACE_BOUND('',#50,.T.);
#16=FACE_BOUND('',#52,.T.);
#17=PLANE('',#191);
#18=PLANE('',#192);
#19=PLANE('',#193);
#20=PLANE('',#194);
#21=CYLINDRICAL_SURFACE('',#175,6.25);
#22=CYLINDRICAL_SURFACE('',#185,5.65);
#23=LINE('',#261,#26);
#24=LINE('',#267,#27);
#25=LINE('',#281,#28);
#26=VECTOR('',#207,6.4);
#27=VECTOR('',#214,6.25);
#28=VECTOR('',#233,5.65);
#29=CONICAL_SURFACE('',#173,6.4,0.78539816339745);
#30=FACE_OUTER_BOUND('',#41,.T.);
#31=FACE_OUTER_BOUND('',#42,.T.);
#32=FACE_OUTER_BOUND('',#43,.T.);
#33=FACE_OUTER_BOUND('',#44,.T.);
#34=FACE_OUTER_BOUND('',#45,.T.);
#35=FACE_OUTER_BOUND('',#46,.T.);
#36=FACE_OUTER_BOUND('',#47,.T.);
#37=FACE_OUTER_BOUND('',#48,.T.);
#38=FACE_OUTER_BOUND('',#49,.T.);
#39=FACE_OUTER_BOUND('',#51,.T.);
#40=FACE_OUTER_BOUND('',#53,.T.);
#41=EDGE_LOOP('',(#98,#99,#100,#101));
#42=EDGE_LOOP('',(#102,#103,#104,#105));
#43=EDGE_LOOP('',(#106,#107,#108,#109));
#44=EDGE_LOOP('',(#110,#111,#112,#113));
#45=EDGE_LOOP('',(#114,#115,#116,#117));
#46=EDGE_LOOP('',(#118,#119,#120,#121));
#47=EDGE_LOOP('',(#122,#123,#124,#125,#126));
#48=EDGE_LOOP('',(#127,#128));
#49=EDGE_LOOP('',(#129));
#50=EDGE_LOOP('',(#130));
#51=EDGE_LOOP('',(#131));
#52=EDGE_LOOP('',(#132));
#53=EDGE_LOOP('',(#133));
#54=CIRCLE('',#170,6.4);
#55=CIRCLE('',#171,0.0999999936000038);
#56=CIRCLE('',#172,6.5);
#57=CIRCLE('',#174,6.3);
#58=CIRCLE('',#176,6.25);
#59=CIRCLE('',#177,6.25);
#60=CIRCLE('',#179,0.0999999935999998);
#61=CIRCLE('',#180,6.14999999997667);
#62=CIRCLE('',#182,5.75);
#63=CIRCLE('',#183,0.0999999936000038);
#64=CIRCLE('',#184,5.65);
#65=CIRCLE('',#186,5.65);
#66=CIRCLE('',#188,0.0999999936000038);
#67=CIRCLE('',#189,5.54999999997667);
#68=CIRCLE('',#190,5.54999999997667);
#69=VERTEX_POINT('',#254);
#70=VERTEX_POINT('',#256);
#71=VERTEX_POINT('',#260);
#72=VERTEX_POINT('',#264);
#73=VERTEX_POINT('',#266);
#74=VERTEX_POINT('',#270);
#75=VERTEX_POINT('',#274);
#76=VERTEX_POINT('',#276);
#77=VERTEX_POINT('',#280);
#78=VERTEX_POINT('',#284);
#79=VERTEX_POINT('',#286);
#80=EDGE_CURVE('',#69,#69,#54,.T.);
#81=EDGE_CURVE('',#69,#70,#55,.T.);
#82=EDGE_CURVE('',#70,#70,#56,.T.);
#83=EDGE_CURVE('',#70,#71,#23,.T.);
#84=EDGE_CURVE('',#71,#71,#57,.T.);
#85=EDGE_CURVE('',#72,#72,#58,.T.);
#86=EDGE_CURVE('',#72,#73,#24,.T.);
#87=EDGE_CURVE('',#73,#73,#59,.T.);
#88=EDGE_CURVE('',#73,#74,#60,.T.);
#89=EDGE_CURVE('',#74,#74,#61,.T.);
#90=EDGE_CURVE('',#75,#75,#62,.T.);
#91=EDGE_CURVE('',#75,#76,#63,.T.);
#92=EDGE_CURVE('',#76,#76,#64,.T.);
#93=EDGE_CURVE('',#76,#77,#25,.T.);
#94=EDGE_CURVE('',#77,#77,#65,.T.);
#95=EDGE_CURVE('',#77,#78,#66,.T.);
#96=EDGE_CURVE('',#78,#79,#67,.T.);
#97=EDGE_CURVE('',#79,#78,#68,.T.);
#98=ORIENTED_EDGE('',*,*,#80,.F.);
#99=ORIENTED_EDGE('',*,*,#81,.T.);
#100=ORIENTED_EDGE('',*,*,#82,.T.);
#101=ORIENTED_EDGE('',*,*,#81,.F.);
#102=ORIENTED_EDGE('',*,*,#82,.F.);
#103=ORIENTED_EDGE('',*,*,#83,.T.);
#104=ORIENTED_EDGE('',*,*,#84,.T.);
#105=ORIENTED_EDGE('',*,*,#83,.F.);
#106=ORIENTED_EDGE('',*,*,#85,.F.);
#107=ORIENTED_EDGE('',*,*,#86,.T.);
#108=ORIENTED_EDGE('',*,*,#87,.T.);
#109=ORIENTED_EDGE('',*,*,#86,.F.);
#110=ORIENTED_EDGE('',*,*,#87,.F.);
#111=ORIENTED_EDGE('',*,*,#88,.T.);
#112=ORIENTED_EDGE('',*,*,#89,.T.);
#113=ORIENTED_EDGE('',*,*,#88,.F.);
#114=ORIENTED_EDGE('',*,*,#90,.F.);
#115=ORIENTED_EDGE('',*,*,#91,.T.);
#116=ORIENTED_EDGE('',*,*,#92,.T.);
#117=ORIENTED_EDGE('',*,*,#91,.F.);
#118=ORIENTED_EDGE('',*,*,#92,.F.);
#119=ORIENTED_EDGE('',*,*,#93,.T.);
#120=ORIENTED_EDGE('',*,*,#94,.T.);
#121=ORIENTED_EDGE('',*,*,#93,.F.);
#122=ORIENTED_EDGE('',*,*,#94,.F.);
#123=ORIENTED_EDGE('',*,*,#95,.T.);
#124=ORIENTED_EDGE('',*,*,#96,.T.);
#125=ORIENTED_EDGE('',*,*,#97,.T.);
#126=ORIENTED_EDGE('',*,*,#95,.F.);
#127=ORIENTED_EDGE('',*,*,#97,.F.);
#128=ORIENTED_EDGE('',*,*,#96,.F.);
#129=ORIENTED_EDGE('',*,*,#89,.F.);
#130=ORIENTED_EDGE('',*,*,#90,.T.);
#131=ORIENTED_EDGE('',*,*,#84,.F.);
#132=ORIENTED_EDGE('',*,*,#85,.T.);
#133=ORIENTED_EDGE('',*,*,#80,.T.);
#134=TOROIDAL_SURFACE('',#169,6.4000000064,0.0999999936000038);
#135=TOROIDAL_SURFACE('',#178,6.1500000064,0.0999999935999998);
#136=TOROIDAL_SURFACE('',#181,5.7499999936,0.0999999936000038);
#137=TOROIDAL_SURFACE('',#187,5.5500000064,0.0999999936000038);
#138=ADVANCED_FACE('',(#30),#134,.T.);
#139=ADVANCED_FACE('',(#31),#29,.T.);
#140=ADVANCED_FACE('',(#32),#21,.T.);
#141=ADVANCED_FACE('',(#33),#135,.T.);
#142=ADVANCED_FACE('',(#34),#136,.T.);
#143=ADVANCED_FACE('',(#35),#22,.F.);
#144=ADVANCED_FACE('',(#36),#137,.F.);
#145=ADVANCED_FACE('',(#37),#17,.T.);
#146=ADVANCED_FACE('',(#38,#15),#18,.T.);
#147=ADVANCED_FACE('',(#39,#16),#19,.T.);
#148=ADVANCED_FACE('',(#40),#20,.T.);
#149=CLOSED_SHELL('',(#138,#139,#140,#141,#142,#143,#144,#145,#146,#147,
#148));
#150=DERIVED_UNIT_ELEMENT(#152,1.);
#151=DERIVED_UNIT_ELEMENT(#298,3.);
#152=(
MASS_UNIT()
NAMED_UNIT(*)
SI_UNIT($,.GRAM.)
);
#153=DERIVED_UNIT((#150,#151));
#154=MEASURE_REPRESENTATION_ITEM('density measure',
POSITIVE_RATIO_MEASURE(1.14),#153);
#155=PROPERTY_DEFINITION_REPRESENTATION(#160,#157);
#156=PROPERTY_DEFINITION_REPRESENTATION(#161,#158);
#157=REPRESENTATION('material name',(#159),#295);
#158=REPRESENTATION('density',(#154),#295);
#159=DESCRIPTIVE_REPRESENTATION_ITEM('Kst - PA6(wei\X\DF)',
'Kst - PA6(wei\X\DF)');
#160=PROPERTY_DEFINITION('material property','material name',#305);
#161=PROPERTY_DEFINITION('material property','density of part',#305);
#162=DATE_TIME_ROLE('creation_date');
#163=APPLIED_DATE_AND_TIME_ASSIGNMENT(#164,#162,(#305));
#164=DATE_AND_TIME(#165,#166);
#165=CALENDAR_DATE(2020,4,11);
#166=LOCAL_TIME(10,10,20.,#167);
#167=COORDINATED_UNIVERSAL_TIME_OFFSET(0,0,.BEHIND.);
#168=AXIS2_PLACEMENT_3D('placement',#252,#195,#196);
#169=AXIS2_PLACEMENT_3D('',#253,#197,#198);
#170=AXIS2_PLACEMENT_3D('',#255,#199,#200);
#171=AXIS2_PLACEMENT_3D('',#257,#201,#202);
#172=AXIS2_PLACEMENT_3D('',#258,#203,#204);
#173=AXIS2_PLACEMENT_3D('',#259,#205,#206);
#174=AXIS2_PLACEMENT_3D('',#262,#208,#209);
#175=AXIS2_PLACEMENT_3D('',#263,#210,#211);
#176=AXIS2_PLACEMENT_3D('',#265,#212,#213);
#177=AXIS2_PLACEMENT_3D('',#268,#215,#216);
#178=AXIS2_PLACEMENT_3D('',#269,#217,#218);
#179=AXIS2_PLACEMENT_3D('',#271,#219,#220);
#180=AXIS2_PLACEMENT_3D('',#272,#221,#222);
#181=AXIS2_PLACEMENT_3D('',#273,#223,#224);
#182=AXIS2_PLACEMENT_3D('',#275,#225,#226);
#183=AXIS2_PLACEMENT_3D('',#277,#227,#228);
#184=AXIS2_PLACEMENT_3D('',#278,#229,#230);
#185=AXIS2_PLACEMENT_3D('',#279,#231,#232);
#186=AXIS2_PLACEMENT_3D('',#282,#234,#235);
#187=AXIS2_PLACEMENT_3D('',#283,#236,#237);
#188=AXIS2_PLACEMENT_3D('',#285,#238,#239);
#189=AXIS2_PLACEMENT_3D('',#287,#240,#241);
#190=AXIS2_PLACEMENT_3D('',#288,#242,#243);
#191=AXIS2_PLACEMENT_3D('',#289,#244,#245);
#192=AXIS2_PLACEMENT_3D('',#290,#246,#247);
#193=AXIS2_PLACEMENT_3D('',#291,#248,#249);
#194=AXIS2_PLACEMENT_3D('',#292,#250,#251);
#195=DIRECTION('axis',(0.,0.,1.));
#196=DIRECTION('refdir',(1.,0.,0.));
#197=DIRECTION('center_axis',(0.,0.,1.));
#198=DIRECTION('ref_axis',(1.,0.,0.));
#199=DIRECTION('center_axis',(0.,0.,1.));
#200=DIRECTION('ref_axis',(1.,0.,0.));
#201=DIRECTION('center_axis',(1.22464679914735E-16,-1.,0.));
#202=DIRECTION('ref_axis',(-1.,-1.22464679914735E-16,0.));
#203=DIRECTION('center_axis',(0.,0.,1.));
#204=DIRECTION('ref_axis',(1.,0.,0.));
#205=DIRECTION('center_axis',(0.,0.,1.));
#206=DIRECTION('ref_axis',(1.,0.,0.));
#207=DIRECTION('',(0.707106781186549,8.65956056235495E-17,-0.707106781186546));
#208=DIRECTION('center_axis',(0.,0.,1.));
#209=DIRECTION('ref_axis',(1.,0.,0.));
#210=DIRECTION('center_axis',(0.,0.,1.));
#211=DIRECTION('ref_axis',(1.,0.,0.));
#212=DIRECTION('center_axis',(0.,0.,1.));
#213=DIRECTION('ref_axis',(1.,0.,0.));
#214=DIRECTION('',(0.,0.,-1.));
#215=DIRECTION('center_axis',(0.,0.,1.));
#216=DIRECTION('ref_axis',(1.,0.,0.));
#217=DIRECTION('center_axis',(0.,0.,1.));
#218=DIRECTION('ref_axis',(1.,0.,0.));
#219=DIRECTION('center_axis',(1.22464679914735E-16,-1.,0.));
#220=DIRECTION('ref_axis',(-1.,-1.22464679914735E-16,0.));
#221=DIRECTION('center_axis',(0.,0.,1.));
#222=DIRECTION('ref_axis',(1.,0.,0.));
#223=DIRECTION('center_axis',(0.,0.,1.));
#224=DIRECTION('ref_axis',(1.,0.,0.));
#225=DIRECTION('center_axis',(0.,0.,1.));
#226=DIRECTION('ref_axis',(1.,0.,0.));
#227=DIRECTION('center_axis',(1.22464679914735E-16,-1.,0.));
#228=DIRECTION('ref_axis',(-1.,-1.22464679914735E-16,0.));
#229=DIRECTION('center_axis',(0.,0.,1.));
#230=DIRECTION('ref_axis',(1.,0.,0.));
#231=DIRECTION('center_axis',(0.,0.,1.));
#232=DIRECTION('ref_axis',(1.,0.,0.));
#233=DIRECTION('',(0.,0.,1.));
#234=DIRECTION('center_axis',(0.,0.,1.));
#235=DIRECTION('ref_axis',(1.,0.,0.));
#236=DIRECTION('center_axis',(0.,0.,1.));
#237=DIRECTION('ref_axis',(1.,0.,0.));
#238=DIRECTION('center_axis',(-1.22464679914735E-16,1.,0.));
#239=DIRECTION('ref_axis',(-1.,-1.22464679914735E-16,0.));
#240=DIRECTION('center_axis',(0.,0.,1.));
#241=DIRECTION('ref_axis',(1.,0.,0.));
#242=DIRECTION('center_axis',(0.,0.,1.));
#243=DIRECTION('ref_axis',(1.,0.,0.));
#244=DIRECTION('center_axis',(0.,0.,-1.));
#245=DIRECTION('ref_axis',(-1.,0.,0.));
#246=DIRECTION('center_axis',(5.20417042823402E-16,0.,-1.));
#247=DIRECTION('ref_axis',(-1.,0.,-5.20417042823402E-16));
#248=DIRECTION('center_axis',(0.,0.,-1.));
#249=DIRECTION('ref_axis',(-1.,0.,0.));
#250=DIRECTION('center_axis',(0.,0.,1.));
#251=DIRECTION('ref_axis',(1.,0.,0.));
#252=CARTESIAN_POINT('',(0.,0.,0.));
#253=CARTESIAN_POINT('Origin',(0.,0.,-0.0999999936000036));
#254=CARTESIAN_POINT('',(-6.4,7.83773951454306E-16,0.));
#255=CARTESIAN_POINT('Origin',(0.,0.,0.));
#256=CARTESIAN_POINT('',(-6.5,7.96020419445779E-16,-0.100000000023335));
#257=CARTESIAN_POINT('Origin',(-6.4000000064,-7.8377395223808E-16,-0.0999999936000036));
#258=CARTESIAN_POINT('Origin',(0.,0.,-0.100000000023335));
#259=CARTESIAN_POINT('Origin',(0.,0.,-0.200000000011667));
#260=CARTESIAN_POINT('',(-6.3,7.71527483462832E-16,-0.3));
#261=CARTESIAN_POINT('',(-6.4,-7.83773951454306E-16,-0.200000000011667));
#262=CARTESIAN_POINT('Origin',(0.,0.,-0.3));
#263=CARTESIAN_POINT('Origin',(0.,0.,-1.55));
#264=CARTESIAN_POINT('',(-6.25,7.65404249467096E-16,-0.3));
#265=CARTESIAN_POINT('Origin',(0.,0.,-0.3));
#266=CARTESIAN_POINT('',(-6.25,7.65404249467096E-16,-2.8));
#267=CARTESIAN_POINT('',(-6.25,-7.65404249467096E-16,-1.55));
#268=CARTESIAN_POINT('Origin',(0.,0.,-2.8));
#269=CARTESIAN_POINT('Origin',(0.,0.,-2.8000000064));
#270=CARTESIAN_POINT('',(-6.14999999997667,7.53157781472764E-16,-2.9));
#271=CARTESIAN_POINT('Origin',(-6.1500000064,-7.53157782259396E-16,-2.8000000064));
#272=CARTESIAN_POINT('Origin',(0.,0.,-2.9));
#273=CARTESIAN_POINT('Origin',(0.,0.,-2.8000000064));
#274=CARTESIAN_POINT('',(-5.75,7.04171909509728E-16,-2.9));
#275=CARTESIAN_POINT('Origin',(0.,0.,-2.9));
#276=CARTESIAN_POINT('',(-5.65,6.91925441518254E-16,-2.79999999997666));
#277=CARTESIAN_POINT('Origin',(-5.7499999936,-7.04171908725954E-16,-2.8000000064));
#278=CARTESIAN_POINT('Origin',(0.,0.,-2.79999999997667));
#279=CARTESIAN_POINT('Origin',(0.,0.,-1.84999999998833));
#280=CARTESIAN_POINT('',(-5.65,6.91925441518254E-16,-0.9));
#281=CARTESIAN_POINT('',(-5.65,-6.91925441518255E-16,-1.84999999998833));
#282=CARTESIAN_POINT('Origin',(0.,0.,-0.9));
#283=CARTESIAN_POINT('Origin',(0.,0.,-0.899999993600003));
#284=CARTESIAN_POINT('',(-5.54999999997667,-6.79678973523924E-16,-0.8));
#285=CARTESIAN_POINT('Origin',(-5.5500000064,-6.79678974310555E-16,-0.899999993600003));
#286=CARTESIAN_POINT('',(5.54999999997667,0.,-0.8));
#287=CARTESIAN_POINT('Origin',(0.,0.,-0.8));
#288=CARTESIAN_POINT('Origin',(0.,0.,-0.8));
#289=CARTESIAN_POINT('Origin',(2.77499999998833,0.,-0.8));
#290=CARTESIAN_POINT('Origin',(5.94999999998833,0.,-2.9));
#291=CARTESIAN_POINT('Origin',(6.275,0.,-0.3));
#292=CARTESIAN_POINT('Origin',(3.2,0.,0.));
#293=UNCERTAINTY_MEASURE_WITH_UNIT(LENGTH_MEASURE(0.01),#297,
'DISTANCE_ACCURACY_VALUE',
'Maximum model space distance between geometric entities at asserted c
onnectivities');
#294=UNCERTAINTY_MEASURE_WITH_UNIT(LENGTH_MEASURE(0.01),#297,
'DISTANCE_ACCURACY_VALUE',
'Maximum model space distance between geometric entities at asserted c
onnectivities');
#295=(
GEOMETRIC_REPRESENTATION_CONTEXT(3)
GLOBAL_UNCERTAINTY_ASSIGNED_CONTEXT((#293))
GLOBAL_UNIT_ASSIGNED_CONTEXT((#297,#300,#299))
REPRESENTATION_CONTEXT('','3D')
);
#296=(
GEOMETRIC_REPRESENTATION_CONTEXT(3)
GLOBAL_UNCERTAINTY_ASSIGNED_CONTEXT((#294))
GLOBAL_UNIT_ASSIGNED_CONTEXT((#297,#300,#299))
REPRESENTATION_CONTEXT('','3D')
);
#297=(
LENGTH_UNIT()
NAMED_UNIT(*)
SI_UNIT(.MILLI.,.METRE.)
);
#298=(
LENGTH_UNIT()
NAMED_UNIT(*)
SI_UNIT(.CENTI.,.METRE.)
);
#299=(
NAMED_UNIT(*)
SI_UNIT($,.STERADIAN.)
SOLID_ANGLE_UNIT()
);
#300=(
NAMED_UNIT(*)
PLANE_ANGLE_UNIT()
SI_UNIT($,.RADIAN.)
);
#301=SHAPE_DEFINITION_REPRESENTATION(#302,#303);
#302=PRODUCT_DEFINITION_SHAPE('',$,#305);
#303=SHAPE_REPRESENTATION('',(#168),#295);
#304=PRODUCT_DEFINITION_CONTEXT('part definition',#309,'design');
#305=PRODUCT_DEFINITION('22105','22105',#306,#304);
#306=PRODUCT_DEFINITION_FORMATION('',$,#311);
#307=PRODUCT_RELATED_PRODUCT_CATEGORY('22105','22105',(#311));
#308=APPLICATION_PROTOCOL_DEFINITION('international standard',
'automotive_design',2009,#309);
#309=APPLICATION_CONTEXT(
'Core Data for Automotive Mechanical Design Process');
#310=PRODUCT_CONTEXT('part definition',#309,'mechanical');
#311=PRODUCT('22105','22105',$,(#310));
#312=PRESENTATION_STYLE_ASSIGNMENT((#313));
#313=SURFACE_STYLE_USAGE(.BOTH.,#314);
#314=SURFACE_SIDE_STYLE('',(#315));
#315=SURFACE_STYLE_FILL_AREA(#316);
#316=FILL_AREA_STYLE('',(#317));
#317=FILL_AREA_STYLE_COLOUR('',#318);
#318=COLOUR_RGB('',0.56078431372549,0.588235294117647,0.6);
ENDSEC;
END-ISO-10303-21;
