ISO-10303-21;
HEADER;
/* Generated by software containing ST-Developer
 * from STEP Tools, Inc. (www.steptools.com) 
 */

FILE_DESCRIPTION(
/* description */ (''),
/* implementation_level */ '2;1');

FILE_NAME(
/* name */ 
'S:\\Bilder_neu\\22102_KriTec_Abdeckkappe_D30_R_grau_aehnlich_RAL_7042
\\Inventordateien\\22102_KriTec_Abdeckkappe_D30_R_grau_aehnlich_RAL_70
42.stp',
/* time_stamp */ '2020-11-04T09:33:18+01:00',
/* author */ ('jendrek'),
/* organization */ (''),
/* preprocessor_version */ 'ST-DEVELOPER v17',
/* originating_system */ 'Autodesk Inventor 2018',
/* authorisation */ '');

FILE_SCHEMA (('AUTOMOTIVE_DESIGN { 1 0 10303 214 3 1 1 }'));
ENDSEC;

DATA;
#10=MECHANICAL_DESIGN_GEOMETRIC_PRESENTATION_REPRESENTATION('',(#13),#281);
#11=SHAPE_REPRESENTATION_RELATIONSHIP('SRR','None',#288,#12);
#12=ADVANCED_BREP_SHAPE_REPRESENTATION('',(#14),#280);
#13=STYLED_ITEM('',(#297),#14);
#14=MANIFOLD_SOLID_BREP('Volumenk\X\F6rper1',#82);
#15=FACE_BOUND('',#26,.T.);
#16=FACE_OUTER_BOUND('',#21,.T.);
#17=FACE_OUTER_BOUND('',#22,.T.);
#18=FACE_OUTER_BOUND('',#23,.T.);
#19=FACE_OUTER_BOUND('',#24,.T.);
#20=FACE_OUTER_BOUND('',#25,.T.);
#21=EDGE_LOOP('',(#54,#55,#56,#57,#58,#59));
#22=EDGE_LOOP('',(#60,#61,#62,#63,#64));
#23=EDGE_LOOP('',(#65));
#24=EDGE_LOOP('',(#66,#67,#68));
#25=EDGE_LOOP('',(#69));
#26=EDGE_LOOP('',(#70,#71));
#27=LINE('',#165,#29);
#28=LINE('',#240,#30);
#29=VECTOR('',#111,6.5);
#30=VECTOR('',#114,6.);
#31=B_SPLINE_CURVE_WITH_KNOTS('',3,(#125,#126,#127,#128,#129,#130,#131,
#132,#133,#134,#135,#136,#137,#138,#139,#140,#141,#142),.UNSPECIFIED.,.F.,
 .F.,(4,2,2,2,2,2,2,2,4),(-1.97558374140657,-1.72857594056359,-1.4815681397206,
-1.23468000521174,-0.987791870702884,-0.740903736194372,-0.494015601685861,
-0.24700780084293,0.),.UNSPECIFIED.);
#32=B_SPLINE_CURVE_WITH_KNOTS('',3,(#144,#145,#146,#147,#148,#149,#150,
#151,#152,#153),.UNSPECIFIED.,.F.,.F.,(4,2,2,2,4),(0.98779187070299,1.23468000521182,
1.48156813972066,1.72857594056361,1.97558374140657),.UNSPECIFIED.);
#33=B_SPLINE_CURVE_WITH_KNOTS('',3,(#154,#155,#156,#157,#158,#159,#160,
#161,#162,#163),.UNSPECIFIED.,.F.,.F.,(4,2,2,2,4),(0.,0.247007800842931,
0.494015601685861,0.740903736194372,0.987791870702884),.UNSPECIFIED.);
#34=B_SPLINE_CURVE_WITH_KNOTS('',3,(#166,#167,#168,#169,#170,#171,#172,
#173,#174,#175,#176,#177,#178,#179,#180,#181,#182,#183,#184,#185,#186,#187,
#188,#189,#190,#191,#192,#193,#194,#195,#196,#197,#198,#199),
 .UNSPECIFIED.,.T.,.F.,(4,2,2,2,2,2,2,2,2,2,2,2,2,2,2,2,4),(0.,0.247065089625222,
0.494130179250443,0.741069342915426,0.988008506580409,1.23494767024539,
1.48188683391038,1.7289519235356,1.97601701316082,2.22308210278604,2.47014719241126,
2.71708635607625,2.96402551974123,3.21096468340621,3.45790384707119,3.70496893669642,
3.95203402632164),.UNSPECIFIED.);
#35=B_SPLINE_CURVE_WITH_KNOTS('',3,(#203,#204,#205,#206,#207,#208,#209,
#210,#211,#212,#213,#214,#215,#216,#217,#218,#219,#220),.UNSPECIFIED.,.F.,
 .F.,(4,2,2,2,2,2,2,2,4),(-1.82153795915198,-1.59380430450343,-1.36607064985488,
-1.13841981471544,-0.910768979575992,-0.683118144436546,-0.455467309297101,
-0.22773365464855,0.),.UNSPECIFIED.);
#36=B_SPLINE_CURVE_WITH_KNOTS('',3,(#221,#222,#223,#224,#225,#226,#227,
#228,#229,#230,#231,#232,#233,#234,#235,#236,#237,#238),.UNSPECIFIED.,.F.,
 .F.,(4,2,2,2,2,2,2,2,4),(0.,0.22773365464855,0.455467309297101,0.683118144436547,
0.910768979575992,1.13841981471544,1.36607064985488,1.59380430450343,1.82153795915198),
 .UNSPECIFIED.);
#37=B_SPLINE_CURVE_WITH_KNOTS('',3,(#241,#242,#243,#244,#245,#246,#247,
#248,#249,#250,#251,#252,#253,#254,#255,#256,#257,#258,#259,#260,#261,#262,
#263,#264,#265,#266,#267,#268,#269,#270,#271,#272,#273,#274),
 .UNSPECIFIED.,.T.,.F.,(4,2,2,2,2,2,2,2,2,2,2,2,2,2,2,2,4),(0.,0.227878579932855,
0.45575715986571,0.683538746911627,0.911320333957543,1.13910192100346,1.36688350804938,
1.59476208798223,1.82264066791509,2.05051924784794,2.2783978277808,2.50617941482671,
2.73396100187263,2.96174258891855,3.18952417596446,3.41740275589732,3.64528133583017),
 .UNSPECIFIED.);
#38=VERTEX_POINT('',#123);
#39=VERTEX_POINT('',#124);
#40=VERTEX_POINT('',#143);
#41=VERTEX_POINT('',#164);
#42=VERTEX_POINT('',#201);
#43=VERTEX_POINT('',#202);
#44=VERTEX_POINT('',#239);
#45=EDGE_CURVE('',#38,#39,#31,.T.);
#46=EDGE_CURVE('',#40,#38,#32,.T.);
#47=EDGE_CURVE('',#39,#40,#33,.T.);
#48=EDGE_CURVE('',#39,#41,#27,.T.);
#49=EDGE_CURVE('',#41,#41,#34,.T.);
#50=EDGE_CURVE('',#42,#43,#35,.T.);
#51=EDGE_CURVE('',#43,#42,#36,.T.);
#52=EDGE_CURVE('',#43,#44,#28,.T.);
#53=EDGE_CURVE('',#44,#44,#37,.T.);
#54=ORIENTED_EDGE('',*,*,#45,.F.);
#55=ORIENTED_EDGE('',*,*,#46,.F.);
#56=ORIENTED_EDGE('',*,*,#47,.F.);
#57=ORIENTED_EDGE('',*,*,#48,.T.);
#58=ORIENTED_EDGE('',*,*,#49,.T.);
#59=ORIENTED_EDGE('',*,*,#48,.F.);
#60=ORIENTED_EDGE('',*,*,#50,.F.);
#61=ORIENTED_EDGE('',*,*,#51,.F.);
#62=ORIENTED_EDGE('',*,*,#52,.T.);
#63=ORIENTED_EDGE('',*,*,#53,.T.);
#64=ORIENTED_EDGE('',*,*,#52,.F.);
#65=ORIENTED_EDGE('',*,*,#53,.F.);
#66=ORIENTED_EDGE('',*,*,#46,.T.);
#67=ORIENTED_EDGE('',*,*,#45,.T.);
#68=ORIENTED_EDGE('',*,*,#47,.T.);
#69=ORIENTED_EDGE('',*,*,#49,.F.);
#70=ORIENTED_EDGE('',*,*,#50,.T.);
#71=ORIENTED_EDGE('',*,*,#51,.T.);
#72=CYLINDRICAL_SURFACE('',#102,6.5);
#73=CYLINDRICAL_SURFACE('',#103,6.);
#74=CYLINDRICAL_SURFACE('',#104,18.37);
#75=CYLINDRICAL_SURFACE('',#105,19.3);
#76=CYLINDRICAL_SURFACE('',#106,19.07);
#77=ADVANCED_FACE('',(#16),#72,.T.);
#78=ADVANCED_FACE('',(#17),#73,.T.);
#79=ADVANCED_FACE('',(#18),#74,.F.);
#80=ADVANCED_FACE('',(#19),#75,.T.);
#81=ADVANCED_FACE('',(#20,#15),#76,.F.);
#82=CLOSED_SHELL('',(#77,#78,#79,#80,#81));
#83=DERIVED_UNIT_ELEMENT(#85,1.);
#84=DERIVED_UNIT_ELEMENT(#283,3.);
#85=(
MASS_UNIT()
NAMED_UNIT(*)
SI_UNIT($,.GRAM.)
);
#86=DERIVED_UNIT((#83,#84));
#87=MEASURE_REPRESENTATION_ITEM('density measure',
POSITIVE_RATIO_MEASURE(1.14),#86);
#88=PROPERTY_DEFINITION_REPRESENTATION(#93,#90);
#89=PROPERTY_DEFINITION_REPRESENTATION(#94,#91);
#90=REPRESENTATION('material name',(#92),#280);
#91=REPRESENTATION('density',(#87),#280);
#92=DESCRIPTIVE_REPRESENTATION_ITEM('Kst - PA6(wei\X\DF)',
'Kst - PA6(wei\X\DF)');
#93=PROPERTY_DEFINITION('material property','material name',#290);
#94=PROPERTY_DEFINITION('material property','density of part',#290);
#95=DATE_TIME_ROLE('creation_date');
#96=APPLIED_DATE_AND_TIME_ASSIGNMENT(#97,#95,(#290));
#97=DATE_AND_TIME(#98,#99);
#98=CALENDAR_DATE(2020,4,11);
#99=LOCAL_TIME(7,51,21.,#100);
#100=COORDINATED_UNIVERSAL_TIME_OFFSET(0,0,.BEHIND.);
#101=AXIS2_PLACEMENT_3D('placement',#121,#107,#108);
#102=AXIS2_PLACEMENT_3D('',#122,#109,#110);
#103=AXIS2_PLACEMENT_3D('',#200,#112,#113);
#104=AXIS2_PLACEMENT_3D('',#275,#115,#116);
#105=AXIS2_PLACEMENT_3D('',#276,#117,#118);
#106=AXIS2_PLACEMENT_3D('',#277,#119,#120);
#107=DIRECTION('axis',(0.,0.,1.));
#108=DIRECTION('refdir',(1.,0.,0.));
#109=DIRECTION('center_axis',(0.,0.,1.));
#110=DIRECTION('ref_axis',(1.,0.,0.));
#111=DIRECTION('',(0.,0.,-1.));
#112=DIRECTION('center_axis',(0.,0.,1.));
#113=DIRECTION('ref_axis',(1.,0.,0.));
#114=DIRECTION('',(0.,0.,-1.));
#115=DIRECTION('center_axis',(0.,-1.,0.));
#116=DIRECTION('ref_axis',(1.,0.,0.));
#117=DIRECTION('center_axis',(0.,-1.,0.));
#118=DIRECTION('ref_axis',(1.,0.,5.23593821239777E-12));
#119=DIRECTION('center_axis',(0.,-1.,0.));
#120=DIRECTION('ref_axis',(1.,0.,0.));
#121=CARTESIAN_POINT('',(0.,0.,0.));
#122=CARTESIAN_POINT('Origin',(0.,0.,20.));
#123=CARTESIAN_POINT('',(6.5,-4.39643573146333E-16,18.1725067065609));
#124=CARTESIAN_POINT('',(-6.5,-5.36788087801034E-16,18.1725067064966));
#125=CARTESIAN_POINT('Ctrl Pts',(6.5,0.,18.1725067064251));
#126=CARTESIAN_POINT('Ctrl Pts',(6.5,0.823359336143283,18.1725067064251));
#127=CARTESIAN_POINT('Ctrl Pts',(6.33412700009516,1.69672877402331,18.2343443529348));
#128=CARTESIAN_POINT('Ctrl Pts',(5.66889643821004,3.29600878562412,18.4519940895985));
#129=CARTESIAN_POINT('Ctrl Pts',(5.16983863100506,4.02254952441986,18.6040753881376));
#130=CARTESIAN_POINT('Ctrl Pts',(4.02282743443321,5.16956072099211,18.8853216551938));
#131=CARTESIAN_POINT('Ctrl Pts',(3.29617625638095,5.6688323356766,19.0335456373629));
#132=CARTESIAN_POINT('Ctrl Pts',(1.69648574377564,6.33422253182245,19.2422081257556));
#133=CARTESIAN_POINT('Ctrl Pts',(0.822960448362865,6.5,19.2999999998957));
#134=CARTESIAN_POINT('Ctrl Pts',(-0.822960448361705,6.5,19.2999999999043));
#135=CARTESIAN_POINT('Ctrl Pts',(-1.69648574377394,6.33422253182287,19.2422081257734));
#136=CARTESIAN_POINT('Ctrl Pts',(-3.29617625637896,5.66883233567772,19.0335456373979));
#137=CARTESIAN_POINT('Ctrl Pts',(-4.02282743443144,5.16956072099348,18.8853216552368));
#138=CARTESIAN_POINT('Ctrl Pts',(-5.1698386310043,4.02254952442102,18.6040753881933));
#139=CARTESIAN_POINT('Ctrl Pts',(-5.66889643820974,3.29600878562475,18.45199408966));
#140=CARTESIAN_POINT('Ctrl Pts',(-6.33412700009523,1.69672877402324,18.2343443530042));
#141=CARTESIAN_POINT('Ctrl Pts',(-6.5,0.823359336143101,18.1725067064966));
#142=CARTESIAN_POINT('Ctrl Pts',(-6.5,-2.77555756156289E-16,18.1725067064966));
#143=CARTESIAN_POINT('',(1.06024815694101E-12,-6.5,19.2999999999));
#144=CARTESIAN_POINT('Ctrl Pts',(-9.71445146547012E-16,-6.5,19.2999999999));
#145=CARTESIAN_POINT('Ctrl Pts',(0.822960448362864,-6.49999999999986,19.2999999998957));
#146=CARTESIAN_POINT('Ctrl Pts',(1.69648574377564,-6.33422253182245,19.2422081257556));
#147=CARTESIAN_POINT('Ctrl Pts',(3.29617625638095,-5.6688323356766,19.0335456373629));
#148=CARTESIAN_POINT('Ctrl Pts',(4.02282743443321,-5.16956072099211,18.8853216551938));
#149=CARTESIAN_POINT('Ctrl Pts',(5.16983863100506,-4.02254952441986,18.6040753881376));
#150=CARTESIAN_POINT('Ctrl Pts',(5.66889643821004,-3.29600878562413,18.4519940895985));
#151=CARTESIAN_POINT('Ctrl Pts',(6.33412700009516,-1.69672877402331,18.2343443529348));
#152=CARTESIAN_POINT('Ctrl Pts',(6.5,-0.823359336143283,18.1725067064251));
#153=CARTESIAN_POINT('Ctrl Pts',(6.5,1.38777878078145E-16,18.1725067064251));
#154=CARTESIAN_POINT('Ctrl Pts',(-6.5,0.,18.1725067064966));
#155=CARTESIAN_POINT('Ctrl Pts',(-6.5,-0.823359336143102,18.1725067064966));
#156=CARTESIAN_POINT('Ctrl Pts',(-6.33412700009523,-1.69672877402325,18.2343443530042));
#157=CARTESIAN_POINT('Ctrl Pts',(-5.66889643820974,-3.29600878562475,18.45199408966));
#158=CARTESIAN_POINT('Ctrl Pts',(-5.1698386310043,-4.02254952442102,18.6040753881933));
#159=CARTESIAN_POINT('Ctrl Pts',(-4.02282743443144,-5.16956072099348,18.8853216552368));
#160=CARTESIAN_POINT('Ctrl Pts',(-3.29617625637896,-5.66883233567772,19.0335456373979));
#161=CARTESIAN_POINT('Ctrl Pts',(-1.69648574377394,-6.33422253182287,19.2422081257734));
#162=CARTESIAN_POINT('Ctrl Pts',(-0.822960448361705,-6.5,19.2999999999043));
#163=CARTESIAN_POINT('Ctrl Pts',(2.08166817117217E-16,-6.5,19.2999999999));
#164=CARTESIAN_POINT('',(-6.5,0.,17.9280478580352));
#165=CARTESIAN_POINT('',(-6.5,-7.9602041944578E-16,20.));
#166=CARTESIAN_POINT('Ctrl Pts',(-6.5,0.,17.9280478580352));
#167=CARTESIAN_POINT('Ctrl Pts',(-6.5,-0.823550298750739,17.9280478580352));
#168=CARTESIAN_POINT('Ctrl Pts',(-6.33405519050582,-1.69698621218045,17.9907603689387));
#169=CARTESIAN_POINT('Ctrl Pts',(-5.6687804101175,-3.29620290344779,18.2113326305619));
#170=CARTESIAN_POINT('Ctrl Pts',(-5.16975609009088,-4.02263206533424,18.365396366033));
#171=CARTESIAN_POINT('Ctrl Pts',(-4.02292440265828,-5.16946375276684,18.6501979889002));
#172=CARTESIAN_POINT('Ctrl Pts',(-3.2963793822115,-5.66871280074527,18.8002568337251));
#173=CARTESIAN_POINT('Ctrl Pts',(-1.69673088451275,-6.33415560077998,19.0114933223353));
#174=CARTESIAN_POINT('Ctrl Pts',(-0.823130545549944,-6.5,19.07));
#175=CARTESIAN_POINT('Ctrl Pts',(0.823130545549942,-6.5,19.07));
#176=CARTESIAN_POINT('Ctrl Pts',(1.69673088451275,-6.33415560077998,19.0114933223353));
#177=CARTESIAN_POINT('Ctrl Pts',(3.2963793822115,-5.66871280074528,18.8002568337251));
#178=CARTESIAN_POINT('Ctrl Pts',(4.02292440265828,-5.16946375276684,18.6501979889002));
#179=CARTESIAN_POINT('Ctrl Pts',(5.16975609009088,-4.02263206533424,18.365396366033));
#180=CARTESIAN_POINT('Ctrl Pts',(5.6687804101175,-3.29620290344779,18.2113326305619));
#181=CARTESIAN_POINT('Ctrl Pts',(6.33405519050582,-1.69698621218046,17.9907603689387));
#182=CARTESIAN_POINT('Ctrl Pts',(6.5,-0.823550298750739,17.9280478580352));
#183=CARTESIAN_POINT('Ctrl Pts',(6.5,0.823550298750739,17.9280478580352));
#184=CARTESIAN_POINT('Ctrl Pts',(6.33405519050582,1.69698621218046,17.9907603689387));
#185=CARTESIAN_POINT('Ctrl Pts',(5.6687804101175,3.29620290344779,18.2113326305619));
#186=CARTESIAN_POINT('Ctrl Pts',(5.16975609009088,4.02263206533424,18.365396366033));
#187=CARTESIAN_POINT('Ctrl Pts',(4.02292440265828,5.16946375276684,18.6501979889002));
#188=CARTESIAN_POINT('Ctrl Pts',(3.2963793822115,5.66871280074528,18.8002568337251));
#189=CARTESIAN_POINT('Ctrl Pts',(1.69673088451275,6.33415560077998,19.0114933223353));
#190=CARTESIAN_POINT('Ctrl Pts',(0.823130545549944,6.5,19.07));
#191=CARTESIAN_POINT('Ctrl Pts',(-0.82313054554994,6.5,19.07));
#192=CARTESIAN_POINT('Ctrl Pts',(-1.69673088451275,6.33415560077998,19.0114933223353));
#193=CARTESIAN_POINT('Ctrl Pts',(-3.29637938221149,5.66871280074528,18.8002568337251));
#194=CARTESIAN_POINT('Ctrl Pts',(-4.02292440265828,5.16946375276684,18.6501979889002));
#195=CARTESIAN_POINT('Ctrl Pts',(-5.16975609009088,4.02263206533424,18.365396366033));
#196=CARTESIAN_POINT('Ctrl Pts',(-5.6687804101175,3.29620290344779,18.2113326305619));
#197=CARTESIAN_POINT('Ctrl Pts',(-6.33405519050582,1.69698621218046,17.9907603689387));
#198=CARTESIAN_POINT('Ctrl Pts',(-6.5,0.823550298750738,17.9280478580352));
#199=CARTESIAN_POINT('Ctrl Pts',(-6.5,-1.94289029309402E-15,17.9280478580352));
#200=CARTESIAN_POINT('Origin',(0.,0.,12.));
#201=CARTESIAN_POINT('',(6.,-3.53516251936391E-16,18.1015165110551));
#202=CARTESIAN_POINT('',(-6.,-4.36782978783278E-16,18.1015165110551));
#203=CARTESIAN_POINT('Ctrl Pts',(6.,1.38777878078145E-16,18.1015165110551));
#204=CARTESIAN_POINT('Ctrl Pts',(6.,0.759112182161834,18.1015165110551));
#205=CARTESIAN_POINT('Ctrl Pts',(5.84723048707464,1.56497571697308,18.154274505847));
#206=CARTESIAN_POINT('Ctrl Pts',(5.23338687459983,3.04153260106669,18.3406500574975));
#207=CARTESIAN_POINT('Ctrl Pts',(4.77255969687916,3.71272167735941,18.4711399509593));
#208=CARTESIAN_POINT('Ctrl Pts',(3.71291439210033,4.77236698213824,18.712947096114));
#209=CARTESIAN_POINT('Ctrl Pts',(3.04164766226795,5.2333430270935,18.8405577515425));
#210=CARTESIAN_POINT('Ctrl Pts',(1.56480611046928,5.84729701036079,19.0202423408965));
#211=CARTESIAN_POINT('Ctrl Pts',(0.758836117131486,6.,19.07));
#212=CARTESIAN_POINT('Ctrl Pts',(-0.758836117131486,6.,19.07));
#213=CARTESIAN_POINT('Ctrl Pts',(-1.56480611046928,5.84729701036079,19.0202423408965));
#214=CARTESIAN_POINT('Ctrl Pts',(-3.04164766226795,5.2333430270935,18.8405577515425));
#215=CARTESIAN_POINT('Ctrl Pts',(-3.71291439210033,4.77236698213824,18.712947096114));
#216=CARTESIAN_POINT('Ctrl Pts',(-4.77255969687916,3.71272167735941,18.4711399509593));
#217=CARTESIAN_POINT('Ctrl Pts',(-5.23338687459983,3.04153260106669,18.3406500574975));
#218=CARTESIAN_POINT('Ctrl Pts',(-5.84723048707464,1.56497571697309,18.154274505847));
#219=CARTESIAN_POINT('Ctrl Pts',(-6.,0.759112182161834,18.1015165110551));
#220=CARTESIAN_POINT('Ctrl Pts',(-6.,-1.38777878078145E-16,18.1015165110551));
#221=CARTESIAN_POINT('Ctrl Pts',(-6.,1.38777878078145E-16,18.1015165110551));
#222=CARTESIAN_POINT('Ctrl Pts',(-6.,-0.759112182161834,18.1015165110551));
#223=CARTESIAN_POINT('Ctrl Pts',(-5.84723048707464,-1.56497571697308,18.154274505847));
#224=CARTESIAN_POINT('Ctrl Pts',(-5.23338687459983,-3.04153260106669,18.3406500574975));
#225=CARTESIAN_POINT('Ctrl Pts',(-4.77255969687916,-3.71272167735941,18.4711399509593));
#226=CARTESIAN_POINT('Ctrl Pts',(-3.71291439210033,-4.77236698213824,18.712947096114));
#227=CARTESIAN_POINT('Ctrl Pts',(-3.04164766226795,-5.2333430270935,18.8405577515425));
#228=CARTESIAN_POINT('Ctrl Pts',(-1.56480611046928,-5.84729701036079,19.0202423408965));
#229=CARTESIAN_POINT('Ctrl Pts',(-0.758836117131486,-6.,19.07));
#230=CARTESIAN_POINT('Ctrl Pts',(0.758836117131486,-6.,19.07));
#231=CARTESIAN_POINT('Ctrl Pts',(1.56480611046928,-5.84729701036079,19.0202423408965));
#232=CARTESIAN_POINT('Ctrl Pts',(3.04164766226795,-5.2333430270935,18.8405577515425));
#233=CARTESIAN_POINT('Ctrl Pts',(3.71291439210033,-4.77236698213824,18.712947096114));
#234=CARTESIAN_POINT('Ctrl Pts',(4.77255969687916,-3.71272167735941,18.4711399509593));
#235=CARTESIAN_POINT('Ctrl Pts',(5.23338687459983,-3.04153260106669,18.3406500574975));
#236=CARTESIAN_POINT('Ctrl Pts',(5.84723048707464,-1.56497571697309,18.154274505847));
#237=CARTESIAN_POINT('Ctrl Pts',(6.,-0.759112182161835,18.1015165110551));
#238=CARTESIAN_POINT('Ctrl Pts',(6.,-2.77555756156289E-16,18.1015165110551));
#239=CARTESIAN_POINT('',(-6.,0.,17.3625142188567));
#240=CARTESIAN_POINT('',(-6.,-7.34788079488412E-16,12.));
#241=CARTESIAN_POINT('Ctrl Pts',(-6.,-1.38777878078145E-16,17.3625142188567));
#242=CARTESIAN_POINT('Ctrl Pts',(-6.,-0.75959526644285,17.3625142188567));
#243=CARTESIAN_POINT('Ctrl Pts',(-5.84704798353399,-1.56563156457603,17.4175944696587));
#244=CARTESIAN_POINT('Ctrl Pts',(-5.23308938398343,-3.04203117448786,17.6117954182197));
#245=CARTESIAN_POINT('Ctrl Pts',(-4.77234583488687,-3.7129355393517,17.7476199152864));
#246=CARTESIAN_POINT('Ctrl Pts',(-3.71316099990847,-4.7721203743301,17.9990411009588));
#247=CARTESIAN_POINT('Ctrl Pts',(-3.04216644998547,-5.23303771335934,18.1316303669298));
#248=CARTESIAN_POINT('Ctrl Pts',(-1.56543380514197,-5.84712563782596,18.3183026904703));
#249=CARTESIAN_POINT('Ctrl Pts',(-0.759271956819723,-6.,18.37));
#250=CARTESIAN_POINT('Ctrl Pts',(0.759271956819721,-6.,18.37));
#251=CARTESIAN_POINT('Ctrl Pts',(1.56543380514197,-5.84712563782596,18.3183026904703));
#252=CARTESIAN_POINT('Ctrl Pts',(3.04216644998547,-5.23303771335934,18.1316303669298));
#253=CARTESIAN_POINT('Ctrl Pts',(3.71316099990847,-4.7721203743301,17.9990411009588));
#254=CARTESIAN_POINT('Ctrl Pts',(4.77234583488687,-3.7129355393517,17.7476199152864));
#255=CARTESIAN_POINT('Ctrl Pts',(5.23308938398342,-3.04203117448786,17.6117954182197));
#256=CARTESIAN_POINT('Ctrl Pts',(5.84704798353399,-1.56563156457603,17.4175944696587));
#257=CARTESIAN_POINT('Ctrl Pts',(6.,-0.75959526644285,17.3625142188567));
#258=CARTESIAN_POINT('Ctrl Pts',(6.,0.759595266442849,17.3625142188567));
#259=CARTESIAN_POINT('Ctrl Pts',(5.84704798353399,1.56563156457603,17.4175944696587));
#260=CARTESIAN_POINT('Ctrl Pts',(5.23308938398343,3.04203117448785,17.6117954182197));
#261=CARTESIAN_POINT('Ctrl Pts',(4.77234583488687,3.7129355393517,17.7476199152864));
#262=CARTESIAN_POINT('Ctrl Pts',(3.71316099990847,4.7721203743301,17.9990411009588));
#263=CARTESIAN_POINT('Ctrl Pts',(3.04216644998547,5.23303771335933,18.1316303669298));
#264=CARTESIAN_POINT('Ctrl Pts',(1.56543380514197,5.84712563782596,18.3183026904703));
#265=CARTESIAN_POINT('Ctrl Pts',(0.759271956819724,6.,18.37));
#266=CARTESIAN_POINT('Ctrl Pts',(-0.759271956819719,6.,18.37));
#267=CARTESIAN_POINT('Ctrl Pts',(-1.56543380514197,5.84712563782596,18.3183026904703));
#268=CARTESIAN_POINT('Ctrl Pts',(-3.04216644998547,5.23303771335934,18.1316303669298));
#269=CARTESIAN_POINT('Ctrl Pts',(-3.71316099990847,4.7721203743301,17.9990411009588));
#270=CARTESIAN_POINT('Ctrl Pts',(-4.77234583488687,3.7129355393517,17.7476199152864));
#271=CARTESIAN_POINT('Ctrl Pts',(-5.23308938398342,3.04203117448786,17.6117954182197));
#272=CARTESIAN_POINT('Ctrl Pts',(-5.84704798353399,1.56563156457603,17.4175944696587));
#273=CARTESIAN_POINT('Ctrl Pts',(-6.,0.75959526644285,17.3625142188567));
#274=CARTESIAN_POINT('Ctrl Pts',(-6.,0.,17.3625142188567));
#275=CARTESIAN_POINT('Origin',(0.,-10.,0.));
#276=CARTESIAN_POINT('Origin',(-9.99982319171977E-11,10.,-9.99990438088053E-11));
#277=CARTESIAN_POINT('Origin',(0.,-10.,0.));
#278=UNCERTAINTY_MEASURE_WITH_UNIT(LENGTH_MEASURE(0.01),#282,
'DISTANCE_ACCURACY_VALUE',
'Maximum model space distance between geometric entities at asserted c
onnectivities');
#279=UNCERTAINTY_MEASURE_WITH_UNIT(LENGTH_MEASURE(0.01),#282,
'DISTANCE_ACCURACY_VALUE',
'Maximum model space distance between geometric entities at asserted c
onnectivities');
#280=(
GEOMETRIC_REPRESENTATION_CONTEXT(3)
GLOBAL_UNCERTAINTY_ASSIGNED_CONTEXT((#278))
GLOBAL_UNIT_ASSIGNED_CONTEXT((#282,#285,#284))
REPRESENTATION_CONTEXT('','3D')
);
#281=(
GEOMETRIC_REPRESENTATION_CONTEXT(3)
GLOBAL_UNCERTAINTY_ASSIGNED_CONTEXT((#279))
GLOBAL_UNIT_ASSIGNED_CONTEXT((#282,#285,#284))
REPRESENTATION_CONTEXT('','3D')
);
#282=(
LENGTH_UNIT()
NAMED_UNIT(*)
SI_UNIT(.MILLI.,.METRE.)
);
#283=(
LENGTH_UNIT()
NAMED_UNIT(*)
SI_UNIT(.CENTI.,.METRE.)
);
#284=(
NAMED_UNIT(*)
SI_UNIT($,.STERADIAN.)
SOLID_ANGLE_UNIT()
);
#285=(
NAMED_UNIT(*)
PLANE_ANGLE_UNIT()
SI_UNIT($,.RADIAN.)
);
#286=SHAPE_DEFINITION_REPRESENTATION(#287,#288);
#287=PRODUCT_DEFINITION_SHAPE('',$,#290);
#288=SHAPE_REPRESENTATION('',(#101),#280);
#289=PRODUCT_DEFINITION_CONTEXT('part definition',#294,'design');
#290=PRODUCT_DEFINITION('22102','22102',#291,#289);
#291=PRODUCT_DEFINITION_FORMATION('',$,#296);
#292=PRODUCT_RELATED_PRODUCT_CATEGORY('22102','22102',(#296));
#293=APPLICATION_PROTOCOL_DEFINITION('international standard',
'automotive_design',2009,#294);
#294=APPLICATION_CONTEXT(
'Core Data for Automotive Mechanical Design Process');
#295=PRODUCT_CONTEXT('part definition',#294,'mechanical');
#296=PRODUCT('22102','22102',$,(#295));
#297=PRESENTATION_STYLE_ASSIGNMENT((#298));
#298=SURFACE_STYLE_USAGE(.BOTH.,#299);
#299=SURFACE_SIDE_STYLE('',(#300));
#300=SURFACE_STYLE_FILL_AREA(#301);
#301=FILL_AREA_STYLE('',(#302));
#302=FILL_AREA_STYLE_COLOUR('',#303);
#303=COLOUR_RGB('',0.56078431372549,0.588235294117647,0.6);
ENDSEC;
END-ISO-10303-21;
