ISO-10303-21;
HEADER;
/* Generated by software containing ST-Developer
 * from STEP Tools, Inc. (www.steptools.com) 
 */

FILE_DESCRIPTION(
/* description */ (
'KriTec Aluwinkel 5 20x20x40x3, schwarz pulverbeschichtet'),
/* implementation_level */ '2;1');

FILE_NAME(
/* name */ 
'C:\\Arbeitsordner\\Designs\\Kuhlemann\\neuteile\\21220\\21220_KriTec_
Aluwinkel_5_20x20x40x3,_schwarz_pulverbeschichtet.stp',
/* time_stamp */ '2022-08-03T15:10:44+02:00',
/* author */ ('Nell'),
/* organization */ (''),
/* preprocessor_version */ 'ST-DEVELOPER v17',
/* originating_system */ 'Autodesk Inventor 2018',
/* authorisation */ '');

FILE_SCHEMA (('AUTOMOTIVE_DESIGN { 1 0 10303 214 3 1 1 }'));
ENDSEC;

DATA;
#10=MECHANICAL_DESIGN_GEOMETRIC_PRESENTATION_REPRESENTATION('',(#13),#451);
#11=SHAPE_REPRESENTATION_RELATIONSHIP('SRR','None',#458,#12);
#12=ADVANCED_BREP_SHAPE_REPRESENTATION('',(#14),#450);
#13=STYLED_ITEM('',(#467),#14);
#14=MANIFOLD_SOLID_BREP('Volumenk\X\F6rper1',#261);
#15=FACE_BOUND('',#48,.T.);
#16=FACE_BOUND('',#49,.T.);
#17=FACE_BOUND('',#54,.T.);
#18=FACE_BOUND('',#55,.T.);
#19=FACE_BOUND('',#57,.T.);
#20=FACE_BOUND('',#58,.T.);
#21=FACE_BOUND('',#61,.T.);
#22=FACE_BOUND('',#62,.T.);
#23=PLANE('',#297);
#24=PLANE('',#298);
#25=PLANE('',#299);
#26=PLANE('',#300);
#27=PLANE('',#301);
#28=PLANE('',#302);
#29=PLANE('',#303);
#30=PLANE('',#304);
#31=FACE_OUTER_BOUND('',#43,.T.);
#32=FACE_OUTER_BOUND('',#44,.T.);
#33=FACE_OUTER_BOUND('',#45,.T.);
#34=FACE_OUTER_BOUND('',#46,.T.);
#35=FACE_OUTER_BOUND('',#47,.T.);
#36=FACE_OUTER_BOUND('',#50,.T.);
#37=FACE_OUTER_BOUND('',#51,.T.);
#38=FACE_OUTER_BOUND('',#52,.T.);
#39=FACE_OUTER_BOUND('',#53,.T.);
#40=FACE_OUTER_BOUND('',#56,.T.);
#41=FACE_OUTER_BOUND('',#59,.T.);
#42=FACE_OUTER_BOUND('',#60,.T.);
#43=EDGE_LOOP('',(#177,#178,#179,#180,#181));
#44=EDGE_LOOP('',(#182,#183,#184,#185,#186));
#45=EDGE_LOOP('',(#187,#188,#189,#190,#191));
#46=EDGE_LOOP('',(#192,#193,#194,#195,#196));
#47=EDGE_LOOP('',(#197,#198,#199,#200));
#48=EDGE_LOOP('',(#201));
#49=EDGE_LOOP('',(#202));
#50=EDGE_LOOP('',(#203,#204,#205,#206,#207,#208));
#51=EDGE_LOOP('',(#209,#210,#211,#212));
#52=EDGE_LOOP('',(#213,#214,#215,#216,#217,#218));
#53=EDGE_LOOP('',(#219,#220,#221,#222));
#54=EDGE_LOOP('',(#223,#224));
#55=EDGE_LOOP('',(#225,#226));
#56=EDGE_LOOP('',(#227,#228,#229,#230));
#57=EDGE_LOOP('',(#231));
#58=EDGE_LOOP('',(#232));
#59=EDGE_LOOP('',(#233,#234,#235,#236));
#60=EDGE_LOOP('',(#237,#238,#239,#240));
#61=EDGE_LOOP('',(#241,#242));
#62=EDGE_LOOP('',(#243,#244));
#63=LINE('',#384,#85);
#64=LINE('',#392,#86);
#65=LINE('',#400,#87);
#66=LINE('',#408,#88);
#67=LINE('',#413,#89);
#68=LINE('',#415,#90);
#69=LINE('',#417,#91);
#70=LINE('',#418,#92);
#71=LINE('',#422,#93);
#72=LINE('',#423,#94);
#73=LINE('',#425,#95);
#74=LINE('',#427,#96);
#75=LINE('',#428,#97);
#76=LINE('',#431,#98);
#77=LINE('',#432,#99);
#78=LINE('',#435,#100);
#79=LINE('',#437,#101);
#80=LINE('',#439,#102);
#81=LINE('',#440,#103);
#82=LINE('',#442,#104);
#83=LINE('',#444,#105);
#84=LINE('',#446,#106);
#85=VECTOR('',#313,2.75);
#86=VECTOR('',#322,2.75);
#87=VECTOR('',#331,2.75);
#88=VECTOR('',#340,2.75);
#89=VECTOR('',#345,10.);
#90=VECTOR('',#346,10.);
#91=VECTOR('',#347,10.);
#92=VECTOR('',#348,10.);
#93=VECTOR('',#351,10.);
#94=VECTOR('',#352,10.);
#95=VECTOR('',#353,10.);
#96=VECTOR('',#354,10.);
#97=VECTOR('',#355,10.);
#98=VECTOR('',#358,10.);
#99=VECTOR('',#359,10.);
#100=VECTOR('',#362,10.);
#101=VECTOR('',#363,10.);
#102=VECTOR('',#364,10.);
#103=VECTOR('',#365,10.);
#104=VECTOR('',#368,10.);
#105=VECTOR('',#371,10.);
#106=VECTOR('',#374,10.);
#107=CIRCLE('',#282,2.75);
#108=CIRCLE('',#283,2.75);
#109=CIRCLE('',#284,2.75);
#110=CIRCLE('',#286,2.75);
#111=CIRCLE('',#287,2.75);
#112=CIRCLE('',#288,2.75);
#113=CIRCLE('',#290,2.75);
#114=CIRCLE('',#291,2.75);
#115=CIRCLE('',#292,2.75);
#116=CIRCLE('',#294,2.75);
#117=CIRCLE('',#295,2.75);
#118=CIRCLE('',#296,2.75);
#119=VERTEX_POINT('',#379);
#120=VERTEX_POINT('',#380);
#121=VERTEX_POINT('',#383);
#122=VERTEX_POINT('',#387);
#123=VERTEX_POINT('',#388);
#124=VERTEX_POINT('',#391);
#125=VERTEX_POINT('',#395);
#126=VERTEX_POINT('',#396);
#127=VERTEX_POINT('',#399);
#128=VERTEX_POINT('',#403);
#129=VERTEX_POINT('',#404);
#130=VERTEX_POINT('',#407);
#131=VERTEX_POINT('',#411);
#132=VERTEX_POINT('',#412);
#133=VERTEX_POINT('',#414);
#134=VERTEX_POINT('',#416);
#135=VERTEX_POINT('',#420);
#136=VERTEX_POINT('',#421);
#137=VERTEX_POINT('',#424);
#138=VERTEX_POINT('',#426);
#139=VERTEX_POINT('',#430);
#140=VERTEX_POINT('',#434);
#141=VERTEX_POINT('',#436);
#142=VERTEX_POINT('',#438);
#143=EDGE_CURVE('',#119,#120,#107,.T.);
#144=EDGE_CURVE('',#120,#119,#108,.T.);
#145=EDGE_CURVE('',#120,#121,#63,.T.);
#146=EDGE_CURVE('',#121,#121,#109,.T.);
#147=EDGE_CURVE('',#122,#123,#110,.T.);
#148=EDGE_CURVE('',#123,#122,#111,.T.);
#149=EDGE_CURVE('',#123,#124,#64,.T.);
#150=EDGE_CURVE('',#124,#124,#112,.T.);
#151=EDGE_CURVE('',#125,#126,#113,.T.);
#152=EDGE_CURVE('',#126,#125,#114,.T.);
#153=EDGE_CURVE('',#126,#127,#65,.T.);
#154=EDGE_CURVE('',#127,#127,#115,.T.);
#155=EDGE_CURVE('',#128,#129,#116,.T.);
#156=EDGE_CURVE('',#129,#128,#117,.T.);
#157=EDGE_CURVE('',#129,#130,#66,.T.);
#158=EDGE_CURVE('',#130,#130,#118,.T.);
#159=EDGE_CURVE('',#131,#132,#67,.T.);
#160=EDGE_CURVE('',#133,#131,#68,.T.);
#161=EDGE_CURVE('',#133,#134,#69,.T.);
#162=EDGE_CURVE('',#132,#134,#70,.T.);
#163=EDGE_CURVE('',#135,#136,#71,.T.);
#164=EDGE_CURVE('',#136,#133,#72,.T.);
#165=EDGE_CURVE('',#131,#137,#73,.T.);
#166=EDGE_CURVE('',#137,#138,#74,.T.);
#167=EDGE_CURVE('',#138,#135,#75,.T.);
#168=EDGE_CURVE('',#136,#139,#76,.T.);
#169=EDGE_CURVE('',#134,#139,#77,.T.);
#170=EDGE_CURVE('',#139,#140,#78,.T.);
#171=EDGE_CURVE('',#140,#141,#79,.T.);
#172=EDGE_CURVE('',#141,#142,#80,.T.);
#173=EDGE_CURVE('',#142,#132,#81,.T.);
#174=EDGE_CURVE('',#140,#135,#82,.T.);
#175=EDGE_CURVE('',#137,#142,#83,.T.);
#176=EDGE_CURVE('',#138,#141,#84,.T.);
#177=ORIENTED_EDGE('',*,*,#143,.F.);
#178=ORIENTED_EDGE('',*,*,#144,.F.);
#179=ORIENTED_EDGE('',*,*,#145,.T.);
#180=ORIENTED_EDGE('',*,*,#146,.F.);
#181=ORIENTED_EDGE('',*,*,#145,.F.);
#182=ORIENTED_EDGE('',*,*,#147,.F.);
#183=ORIENTED_EDGE('',*,*,#148,.F.);
#184=ORIENTED_EDGE('',*,*,#149,.T.);
#185=ORIENTED_EDGE('',*,*,#150,.F.);
#186=ORIENTED_EDGE('',*,*,#149,.F.);
#187=ORIENTED_EDGE('',*,*,#151,.F.);
#188=ORIENTED_EDGE('',*,*,#152,.F.);
#189=ORIENTED_EDGE('',*,*,#153,.T.);
#190=ORIENTED_EDGE('',*,*,#154,.F.);
#191=ORIENTED_EDGE('',*,*,#153,.F.);
#192=ORIENTED_EDGE('',*,*,#155,.F.);
#193=ORIENTED_EDGE('',*,*,#156,.F.);
#194=ORIENTED_EDGE('',*,*,#157,.T.);
#195=ORIENTED_EDGE('',*,*,#158,.F.);
#196=ORIENTED_EDGE('',*,*,#157,.F.);
#197=ORIENTED_EDGE('',*,*,#159,.F.);
#198=ORIENTED_EDGE('',*,*,#160,.F.);
#199=ORIENTED_EDGE('',*,*,#161,.T.);
#200=ORIENTED_EDGE('',*,*,#162,.F.);
#201=ORIENTED_EDGE('',*,*,#154,.T.);
#202=ORIENTED_EDGE('',*,*,#158,.T.);
#203=ORIENTED_EDGE('',*,*,#163,.T.);
#204=ORIENTED_EDGE('',*,*,#164,.T.);
#205=ORIENTED_EDGE('',*,*,#160,.T.);
#206=ORIENTED_EDGE('',*,*,#165,.T.);
#207=ORIENTED_EDGE('',*,*,#166,.T.);
#208=ORIENTED_EDGE('',*,*,#167,.T.);
#209=ORIENTED_EDGE('',*,*,#168,.T.);
#210=ORIENTED_EDGE('',*,*,#169,.F.);
#211=ORIENTED_EDGE('',*,*,#161,.F.);
#212=ORIENTED_EDGE('',*,*,#164,.F.);
#213=ORIENTED_EDGE('',*,*,#162,.T.);
#214=ORIENTED_EDGE('',*,*,#169,.T.);
#215=ORIENTED_EDGE('',*,*,#170,.T.);
#216=ORIENTED_EDGE('',*,*,#171,.T.);
#217=ORIENTED_EDGE('',*,*,#172,.T.);
#218=ORIENTED_EDGE('',*,*,#173,.T.);
#219=ORIENTED_EDGE('',*,*,#174,.F.);
#220=ORIENTED_EDGE('',*,*,#170,.F.);
#221=ORIENTED_EDGE('',*,*,#168,.F.);
#222=ORIENTED_EDGE('',*,*,#163,.F.);
#223=ORIENTED_EDGE('',*,*,#151,.T.);
#224=ORIENTED_EDGE('',*,*,#152,.T.);
#225=ORIENTED_EDGE('',*,*,#155,.T.);
#226=ORIENTED_EDGE('',*,*,#156,.T.);
#227=ORIENTED_EDGE('',*,*,#159,.T.);
#228=ORIENTED_EDGE('',*,*,#173,.F.);
#229=ORIENTED_EDGE('',*,*,#175,.F.);
#230=ORIENTED_EDGE('',*,*,#165,.F.);
#231=ORIENTED_EDGE('',*,*,#146,.T.);
#232=ORIENTED_EDGE('',*,*,#150,.T.);
#233=ORIENTED_EDGE('',*,*,#175,.T.);
#234=ORIENTED_EDGE('',*,*,#172,.F.);
#235=ORIENTED_EDGE('',*,*,#176,.F.);
#236=ORIENTED_EDGE('',*,*,#166,.F.);
#237=ORIENTED_EDGE('',*,*,#171,.F.);
#238=ORIENTED_EDGE('',*,*,#174,.T.);
#239=ORIENTED_EDGE('',*,*,#167,.F.);
#240=ORIENTED_EDGE('',*,*,#176,.T.);
#241=ORIENTED_EDGE('',*,*,#143,.T.);
#242=ORIENTED_EDGE('',*,*,#144,.T.);
#243=ORIENTED_EDGE('',*,*,#147,.T.);
#244=ORIENTED_EDGE('',*,*,#148,.T.);
#245=CYLINDRICAL_SURFACE('',#281,2.75);
#246=CYLINDRICAL_SURFACE('',#285,2.75);
#247=CYLINDRICAL_SURFACE('',#289,2.75);
#248=CYLINDRICAL_SURFACE('',#293,2.75);
#249=ADVANCED_FACE('',(#31),#245,.F.);
#250=ADVANCED_FACE('',(#32),#246,.F.);
#251=ADVANCED_FACE('',(#33),#247,.F.);
#252=ADVANCED_FACE('',(#34),#248,.F.);
#253=ADVANCED_FACE('',(#35,#15,#16),#23,.T.);
#254=ADVANCED_FACE('',(#36),#24,.T.);
#255=ADVANCED_FACE('',(#37),#25,.T.);
#256=ADVANCED_FACE('',(#38),#26,.T.);
#257=ADVANCED_FACE('',(#39,#17,#18),#27,.T.);
#258=ADVANCED_FACE('',(#40,#19,#20),#28,.T.);
#259=ADVANCED_FACE('',(#41),#29,.T.);
#260=ADVANCED_FACE('',(#42,#21,#22),#30,.T.);
#261=CLOSED_SHELL('',(#249,#250,#251,#252,#253,#254,#255,#256,#257,#258,
#259,#260));
#262=DERIVED_UNIT_ELEMENT(#264,1.);
#263=DERIVED_UNIT_ELEMENT(#453,3.);
#264=(
MASS_UNIT()
NAMED_UNIT(*)
SI_UNIT($,.GRAM.)
);
#265=DERIVED_UNIT((#262,#263));
#266=MEASURE_REPRESENTATION_ITEM('density measure',
POSITIVE_RATIO_MEASURE(2.66),#265);
#267=PROPERTY_DEFINITION_REPRESENTATION(#272,#269);
#268=PROPERTY_DEFINITION_REPRESENTATION(#273,#270);
#269=REPRESENTATION('material name',(#271),#450);
#270=REPRESENTATION('density',(#266),#450);
#271=DESCRIPTIVE_REPRESENTATION_ITEM('Alu','Alu');
#272=PROPERTY_DEFINITION('material property','material name',#460);
#273=PROPERTY_DEFINITION('material property','density of part',#460);
#274=DATE_TIME_ROLE('creation_date');
#275=APPLIED_DATE_AND_TIME_ASSIGNMENT(#276,#274,(#460));
#276=DATE_AND_TIME(#277,#278);
#277=CALENDAR_DATE(2022,3,8);
#278=LOCAL_TIME(12,47,33.,#279);
#279=COORDINATED_UNIVERSAL_TIME_OFFSET(0,0,.BEHIND.);
#280=AXIS2_PLACEMENT_3D('placement',#377,#305,#306);
#281=AXIS2_PLACEMENT_3D('',#378,#307,#308);
#282=AXIS2_PLACEMENT_3D('',#381,#309,#310);
#283=AXIS2_PLACEMENT_3D('',#382,#311,#312);
#284=AXIS2_PLACEMENT_3D('',#385,#314,#315);
#285=AXIS2_PLACEMENT_3D('',#386,#316,#317);
#286=AXIS2_PLACEMENT_3D('',#389,#318,#319);
#287=AXIS2_PLACEMENT_3D('',#390,#320,#321);
#288=AXIS2_PLACEMENT_3D('',#393,#323,#324);
#289=AXIS2_PLACEMENT_3D('',#394,#325,#326);
#290=AXIS2_PLACEMENT_3D('',#397,#327,#328);
#291=AXIS2_PLACEMENT_3D('',#398,#329,#330);
#292=AXIS2_PLACEMENT_3D('',#401,#332,#333);
#293=AXIS2_PLACEMENT_3D('',#402,#334,#335);
#294=AXIS2_PLACEMENT_3D('',#405,#336,#337);
#295=AXIS2_PLACEMENT_3D('',#406,#338,#339);
#296=AXIS2_PLACEMENT_3D('',#409,#341,#342);
#297=AXIS2_PLACEMENT_3D('',#410,#343,#344);
#298=AXIS2_PLACEMENT_3D('',#419,#349,#350);
#299=AXIS2_PLACEMENT_3D('',#429,#356,#357);
#300=AXIS2_PLACEMENT_3D('',#433,#360,#361);
#301=AXIS2_PLACEMENT_3D('',#441,#366,#367);
#302=AXIS2_PLACEMENT_3D('',#443,#369,#370);
#303=AXIS2_PLACEMENT_3D('',#445,#372,#373);
#304=AXIS2_PLACEMENT_3D('',#447,#375,#376);
#305=DIRECTION('axis',(0.,0.,1.));
#306=DIRECTION('refdir',(1.,0.,0.));
#307=DIRECTION('center_axis',(1.,-7.03012398122746E-33,0.));
#308=DIRECTION('ref_axis',(0.,0.,-1.));
#309=DIRECTION('center_axis',(-1.,7.03012398122746E-33,0.));
#310=DIRECTION('ref_axis',(0.,0.,-1.));
#311=DIRECTION('center_axis',(-1.,7.03012398122746E-33,0.));
#312=DIRECTION('ref_axis',(0.,0.,-1.));
#313=DIRECTION('',(-1.,7.03012398122746E-33,0.));
#314=DIRECTION('center_axis',(1.,0.,0.));
#315=DIRECTION('ref_axis',(0.,0.,-1.));
#316=DIRECTION('center_axis',(1.,-7.03012398122746E-33,0.));
#317=DIRECTION('ref_axis',(0.,0.,-1.));
#318=DIRECTION('center_axis',(-1.,7.03012398122746E-33,0.));
#319=DIRECTION('ref_axis',(0.,0.,-1.));
#320=DIRECTION('center_axis',(-1.,7.03012398122746E-33,0.));
#321=DIRECTION('ref_axis',(0.,0.,-1.));
#322=DIRECTION('',(-1.,7.03012398122746E-33,0.));
#323=DIRECTION('center_axis',(1.,0.,0.));
#324=DIRECTION('ref_axis',(0.,0.,-1.));
#325=DIRECTION('center_axis',(0.,-1.,0.));
#326=DIRECTION('ref_axis',(1.,0.,0.));
#327=DIRECTION('center_axis',(0.,1.,0.));
#328=DIRECTION('ref_axis',(1.,0.,0.));
#329=DIRECTION('center_axis',(0.,1.,0.));
#330=DIRECTION('ref_axis',(1.,0.,0.));
#331=DIRECTION('',(0.,1.,0.));
#332=DIRECTION('center_axis',(0.,-1.,0.));
#333=DIRECTION('ref_axis',(1.,0.,0.));
#334=DIRECTION('center_axis',(0.,-1.,0.));
#335=DIRECTION('ref_axis',(1.,0.,0.));
#336=DIRECTION('center_axis',(0.,1.,0.));
#337=DIRECTION('ref_axis',(1.,0.,0.));
#338=DIRECTION('center_axis',(0.,1.,0.));
#339=DIRECTION('ref_axis',(1.,0.,0.));
#340=DIRECTION('',(0.,1.,0.));
#341=DIRECTION('center_axis',(0.,-1.,0.));
#342=DIRECTION('ref_axis',(1.,0.,0.));
#343=DIRECTION('center_axis',(0.,1.,0.));
#344=DIRECTION('ref_axis',(-1.,0.,0.));
#345=DIRECTION('',(0.,0.,1.));
#346=DIRECTION('',(1.,0.,0.));
#347=DIRECTION('',(0.,0.,1.));
#348=DIRECTION('',(-1.,0.,0.));
#349=DIRECTION('center_axis',(0.,0.,-1.));
#350=DIRECTION('ref_axis',(-1.,0.,0.));
#351=DIRECTION('',(-1.,0.,0.));
#352=DIRECTION('',(0.,1.,0.));
#353=DIRECTION('',(0.,1.,0.));
#354=DIRECTION('',(1.,0.,0.));
#355=DIRECTION('',(-7.03012398122746E-33,-1.,0.));
#356=DIRECTION('center_axis',(-1.,0.,0.));
#357=DIRECTION('ref_axis',(0.,-1.,0.));
#358=DIRECTION('',(0.,0.,1.));
#359=DIRECTION('',(0.,-1.,0.));
#360=DIRECTION('center_axis',(0.,0.,1.));
#361=DIRECTION('ref_axis',(1.,0.,0.));
#362=DIRECTION('',(1.,0.,0.));
#363=DIRECTION('',(7.03012398122746E-33,1.,0.));
#364=DIRECTION('',(-1.,0.,0.));
#365=DIRECTION('',(0.,-1.,0.));
#366=DIRECTION('center_axis',(0.,-1.,0.));
#367=DIRECTION('ref_axis',(1.,0.,0.));
#368=DIRECTION('',(0.,0.,-1.));
#369=DIRECTION('center_axis',(-1.,0.,0.));
#370=DIRECTION('ref_axis',(0.,-1.,0.));
#371=DIRECTION('',(0.,0.,1.));
#372=DIRECTION('center_axis',(0.,1.,0.));
#373=DIRECTION('ref_axis',(-1.,0.,0.));
#374=DIRECTION('',(0.,0.,1.));
#375=DIRECTION('center_axis',(1.,-7.03012398122746E-33,0.));
#376=DIRECTION('ref_axis',(7.03012398122746E-33,1.,0.));
#377=CARTESIAN_POINT('',(0.,0.,0.));
#378=CARTESIAN_POINT('Origin',(-48.9897948556636,10.,-10.));
#379=CARTESIAN_POINT('',(7.03012398122745E-32,10.,-12.75));
#380=CARTESIAN_POINT('',(0.,10.,-7.25));
#381=CARTESIAN_POINT('Origin',(0.,10.,-10.));
#382=CARTESIAN_POINT('Origin',(0.,10.,-10.));
#383=CARTESIAN_POINT('',(-3.,10.,-7.25));
#384=CARTESIAN_POINT('',(-48.9897948556636,10.,-7.25));
#385=CARTESIAN_POINT('Origin',(-3.,10.,-10.));
#386=CARTESIAN_POINT('Origin',(-48.9897948556636,10.,10.));
#387=CARTESIAN_POINT('',(7.03012398122745E-32,10.,7.25));
#388=CARTESIAN_POINT('',(0.,10.,12.75));
#389=CARTESIAN_POINT('Origin',(0.,10.,10.));
#390=CARTESIAN_POINT('Origin',(0.,10.,10.));
#391=CARTESIAN_POINT('',(-3.,10.,12.75));
#392=CARTESIAN_POINT('',(-48.9897948556636,10.,12.75));
#393=CARTESIAN_POINT('Origin',(-3.,10.,10.));
#394=CARTESIAN_POINT('Origin',(-10.,48.9897948556636,-10.));
#395=CARTESIAN_POINT('',(-7.25,0.,-10.));
#396=CARTESIAN_POINT('',(-12.75,0.,-10.));
#397=CARTESIAN_POINT('Origin',(-10.,0.,-10.));
#398=CARTESIAN_POINT('Origin',(-10.,0.,-10.));
#399=CARTESIAN_POINT('',(-12.75,3.,-10.));
#400=CARTESIAN_POINT('',(-12.75,48.9897948556636,-10.));
#401=CARTESIAN_POINT('Origin',(-10.,3.,-10.));
#402=CARTESIAN_POINT('Origin',(-10.,48.9897948556636,10.));
#403=CARTESIAN_POINT('',(-7.25,0.,10.));
#404=CARTESIAN_POINT('',(-12.75,0.,10.));
#405=CARTESIAN_POINT('Origin',(-10.,0.,10.));
#406=CARTESIAN_POINT('Origin',(-10.,0.,10.));
#407=CARTESIAN_POINT('',(-12.75,3.,10.));
#408=CARTESIAN_POINT('',(-12.75,48.9897948556636,10.));
#409=CARTESIAN_POINT('Origin',(-10.,3.,10.));
#410=CARTESIAN_POINT('Origin',(0.,3.,0.));
#411=CARTESIAN_POINT('',(-3.,3.,-20.));
#412=CARTESIAN_POINT('',(-3.,3.,20.));
#413=CARTESIAN_POINT('',(-3.,3.,0.));
#414=CARTESIAN_POINT('',(-20.,3.,-20.));
#415=CARTESIAN_POINT('',(0.,3.,-20.));
#416=CARTESIAN_POINT('',(-20.,3.,20.));
#417=CARTESIAN_POINT('',(-20.,3.,0.));
#418=CARTESIAN_POINT('',(0.,3.,20.));
#419=CARTESIAN_POINT('Origin',(-10.,1.5,-20.));
#420=CARTESIAN_POINT('',(0.,0.,-20.));
#421=CARTESIAN_POINT('',(-20.,0.,-20.));
#422=CARTESIAN_POINT('',(-3.,0.,-20.));
#423=CARTESIAN_POINT('',(-20.,3.,-20.));
#424=CARTESIAN_POINT('',(-3.,20.,-20.));
#425=CARTESIAN_POINT('',(-3.,20.,-20.));
#426=CARTESIAN_POINT('',(1.40602479624549E-31,20.,-20.));
#427=CARTESIAN_POINT('',(0.,20.,-20.));
#428=CARTESIAN_POINT('',(0.,0.,-20.));
#429=CARTESIAN_POINT('Origin',(-20.,3.,0.));
#430=CARTESIAN_POINT('',(-20.,0.,20.));
#431=CARTESIAN_POINT('',(-20.,0.,0.));
#432=CARTESIAN_POINT('',(-20.,3.,20.));
#433=CARTESIAN_POINT('Origin',(-10.,1.5,20.));
#434=CARTESIAN_POINT('',(0.,0.,20.));
#435=CARTESIAN_POINT('',(-20.,0.,20.));
#436=CARTESIAN_POINT('',(1.40602479624549E-31,20.,20.));
#437=CARTESIAN_POINT('',(0.,0.,20.));
#438=CARTESIAN_POINT('',(-3.,20.,20.));
#439=CARTESIAN_POINT('',(0.,20.,20.));
#440=CARTESIAN_POINT('',(-3.,20.,20.));
#441=CARTESIAN_POINT('Origin',(-3.,0.,0.));
#442=CARTESIAN_POINT('',(0.,0.,0.));
#443=CARTESIAN_POINT('Origin',(-3.,20.,0.));
#444=CARTESIAN_POINT('',(-3.,20.,0.));
#445=CARTESIAN_POINT('Origin',(0.,20.,0.));
#446=CARTESIAN_POINT('',(1.40602479624549E-31,20.,0.));
#447=CARTESIAN_POINT('Origin',(0.,0.,0.));
#448=UNCERTAINTY_MEASURE_WITH_UNIT(LENGTH_MEASURE(0.01),#452,
'DISTANCE_ACCURACY_VALUE',
'Maximum model space distance between geometric entities at asserted c
onnectivities');
#449=UNCERTAINTY_MEASURE_WITH_UNIT(LENGTH_MEASURE(0.01),#452,
'DISTANCE_ACCURACY_VALUE',
'Maximum model space distance between geometric entities at asserted c
onnectivities');
#450=(
GEOMETRIC_REPRESENTATION_CONTEXT(3)
GLOBAL_UNCERTAINTY_ASSIGNED_CONTEXT((#448))
GLOBAL_UNIT_ASSIGNED_CONTEXT((#452,#455,#454))
REPRESENTATION_CONTEXT('','3D')
);
#451=(
GEOMETRIC_REPRESENTATION_CONTEXT(3)
GLOBAL_UNCERTAINTY_ASSIGNED_CONTEXT((#449))
GLOBAL_UNIT_ASSIGNED_CONTEXT((#452,#455,#454))
REPRESENTATION_CONTEXT('','3D')
);
#452=(
LENGTH_UNIT()
NAMED_UNIT(*)
SI_UNIT(.MILLI.,.METRE.)
);
#453=(
LENGTH_UNIT()
NAMED_UNIT(*)
SI_UNIT(.CENTI.,.METRE.)
);
#454=(
NAMED_UNIT(*)
SI_UNIT($,.STERADIAN.)
SOLID_ANGLE_UNIT()
);
#455=(
NAMED_UNIT(*)
PLANE_ANGLE_UNIT()
SI_UNIT($,.RADIAN.)
);
#456=SHAPE_DEFINITION_REPRESENTATION(#457,#458);
#457=PRODUCT_DEFINITION_SHAPE('',$,#460);
#458=SHAPE_REPRESENTATION('',(#280),#450);
#459=PRODUCT_DEFINITION_CONTEXT('part definition',#464,'design');
#460=PRODUCT_DEFINITION('21220',
'21220_KriTec_Aluwinkel_5_20x20x40x3, schwarz pulverbeschichtet',#461,#459);
#461=PRODUCT_DEFINITION_FORMATION('',$,#466);
#462=PRODUCT_RELATED_PRODUCT_CATEGORY(
'21220_KriTec_Aluwinkel_5_20x20x40x3, schwarz pulverbeschichtet',
'21220_KriTec_Aluwinkel_5_20x20x40x3, schwarz pulverbeschichtet',(#466));
#463=APPLICATION_PROTOCOL_DEFINITION('international standard',
'automotive_design',2009,#464);
#464=APPLICATION_CONTEXT(
'Core Data for Automotive Mechanical Design Process');
#465=PRODUCT_CONTEXT('part definition',#464,'mechanical');
#466=PRODUCT('21220',
'21220_KriTec_Aluwinkel_5_20x20x40x3, schwarz pulverbeschichtet',
'KriTec Aluwinkel 5 20x20x40x3, schwarz pulverbeschichtet',(#465));
#467=PRESENTATION_STYLE_ASSIGNMENT((#468));
#468=SURFACE_STYLE_USAGE(.BOTH.,#469);
#469=SURFACE_SIDE_STYLE('',(#470));
#470=SURFACE_STYLE_FILL_AREA(#471);
#471=FILL_AREA_STYLE('',(#472));
#472=FILL_AREA_STYLE_COLOUR('',#473);
#473=COLOUR_RGB('',0.250980392156863,0.250980392156863,0.250980392156863);
ENDSEC;
END-ISO-10303-21;
