ISO-10303-21;
HEADER;
/* Generated by software containing ST-Developer
 * from STEP Tools, Inc. (www.steptools.com) 
 */

FILE_DESCRIPTION(
/* description */ (''),
/* implementation_level */ '2;1');

FILE_NAME(
/* name */ 
'S:\\Bilder_neu\\18101_KriTec_Verbundmuffe_14x18_M8\\Inventordateien\\
18101_KriTec_Verbundmuffe_14x18_M8.stp',
/* time_stamp */ '2014-09-05T15:02:52+02:00',
/* author */ ('kostic'),
/* organization */ (''),
/* preprocessor_version */ 'ST-DEVELOPER v15.2',
/* originating_system */ 'Autodesk Inventor 2014',
/* authorisation */ '');

FILE_SCHEMA (('AUTOMOTIVE_DESIGN { 1 0 10303 214 3 1 1 }'));
ENDSEC;

DATA;
#10=SHAPE_REPRESENTATION_RELATIONSHIP('SRR','None',#357,#11);
#11=ADVANCED_BREP_SHAPE_REPRESENTATION($,(#212),#348);
#12=STYLED_ITEM($,(#365),#212);
#13=LINE($,#309,#31);
#14=LINE($,#311,#32);
#15=LINE($,#313,#33);
#16=LINE($,#315,#34);
#17=LINE($,#317,#35);
#18=LINE($,#318,#36);
#19=LINE($,#321,#37);
#20=LINE($,#323,#38);
#21=LINE($,#324,#39);
#22=LINE($,#327,#40);
#23=LINE($,#328,#41);
#24=LINE($,#331,#42);
#25=LINE($,#332,#43);
#26=LINE($,#335,#44);
#27=LINE($,#336,#45);
#28=LINE($,#339,#46);
#29=LINE($,#340,#47);
#30=LINE($,#342,#48);
#31=VECTOR($,#255,4.61880215351701);
#32=VECTOR($,#256,4.61880215351701);
#33=VECTOR($,#257,4.61880215351701);
#34=VECTOR($,#258,4.61880215351701);
#35=VECTOR($,#259,4.618802153517);
#36=VECTOR($,#260,4.618802153517);
#37=VECTOR($,#263,4.);
#38=VECTOR($,#264,4.61880215351701);
#39=VECTOR($,#265,4.);
#40=VECTOR($,#268,4.);
#41=VECTOR($,#269,4.618802153517);
#42=VECTOR($,#272,4.);
#43=VECTOR($,#273,4.61880215351701);
#44=VECTOR($,#276,4.);
#45=VECTOR($,#277,4.61880215351701);
#46=VECTOR($,#280,4.);
#47=VECTOR($,#281,4.61880215351701);
#48=VECTOR($,#284,4.61880215351701);
#49=PLANE($,#219);
#50=PLANE($,#223);
#51=PLANE($,#224);
#52=PLANE($,#225);
#53=PLANE($,#226);
#54=PLANE($,#227);
#55=PLANE($,#228);
#56=PLANE($,#229);
#57=PLANE($,#230);
#58=CYLINDRICAL_SURFACE($,#217,7.);
#59=CYLINDRICAL_SURFACE($,#232,3.3235);
#60=FACE_BOUND($,#81,.T.);
#61=FACE_BOUND($,#83,.T.);
#62=FACE_BOUND($,#84,.T.);
#63=FACE_BOUND($,#85,.T.);
#64=FACE_BOUND($,#87,.T.);
#65=FACE_BOUND($,#88,.T.);
#66=FACE_BOUND($,#89,.T.);
#67=FACE_BOUND($,#96,.T.);
#68=FACE_BOUND($,#97,.T.);
#69=FACE_BOUND($,#99,.T.);
#70=FACE_OUTER_BOUND($,#80,.T.);
#71=FACE_OUTER_BOUND($,#82,.T.);
#72=FACE_OUTER_BOUND($,#86,.T.);
#73=FACE_OUTER_BOUND($,#90,.T.);
#74=FACE_OUTER_BOUND($,#91,.T.);
#75=FACE_OUTER_BOUND($,#92,.T.);
#76=FACE_OUTER_BOUND($,#93,.T.);
#77=FACE_OUTER_BOUND($,#94,.T.);
#78=FACE_OUTER_BOUND($,#95,.T.);
#79=FACE_OUTER_BOUND($,#98,.T.);
#80=EDGE_LOOP($,(#148));
#81=EDGE_LOOP($,(#149));
#82=EDGE_LOOP($,(#150));
#83=EDGE_LOOP($,(#151));
#84=EDGE_LOOP($,(#152));
#85=EDGE_LOOP($,(#153));
#86=EDGE_LOOP($,(#154));
#87=EDGE_LOOP($,(#155));
#88=EDGE_LOOP($,(#156,#157,#158,#159,#160,#161));
#89=EDGE_LOOP($,(#162));
#90=EDGE_LOOP($,(#163,#164,#165,#166));
#91=EDGE_LOOP($,(#167,#168,#169,#170));
#92=EDGE_LOOP($,(#171,#172,#173,#174));
#93=EDGE_LOOP($,(#175,#176,#177,#178));
#94=EDGE_LOOP($,(#179,#180,#181,#182));
#95=EDGE_LOOP($,(#183,#184,#185,#186));
#96=EDGE_LOOP($,(#187));
#97=EDGE_LOOP($,(#188,#189,#190,#191,#192,#193));
#98=EDGE_LOOP($,(#194));
#99=EDGE_LOOP($,(#195));
#100=CIRCLE($,#215,7.);
#101=CIRCLE($,#216,6.);
#102=CIRCLE($,#218,7.);
#103=CIRCLE($,#220,3.3235);
#104=CIRCLE($,#222,6.);
#105=CIRCLE($,#231,3.3235);
#106=VERTEX_POINT($,#293);
#107=VERTEX_POINT($,#295);
#108=VERTEX_POINT($,#298);
#109=VERTEX_POINT($,#301);
#110=VERTEX_POINT($,#304);
#111=VERTEX_POINT($,#307);
#112=VERTEX_POINT($,#308);
#113=VERTEX_POINT($,#310);
#114=VERTEX_POINT($,#312);
#115=VERTEX_POINT($,#314);
#116=VERTEX_POINT($,#316);
#117=VERTEX_POINT($,#320);
#118=VERTEX_POINT($,#322);
#119=VERTEX_POINT($,#326);
#120=VERTEX_POINT($,#330);
#121=VERTEX_POINT($,#334);
#122=VERTEX_POINT($,#338);
#123=VERTEX_POINT($,#344);
#124=EDGE_CURVE($,#106,#106,#100,.T.);
#125=EDGE_CURVE($,#107,#107,#101,.T.);
#126=EDGE_CURVE($,#108,#108,#102,.T.);
#127=EDGE_CURVE($,#109,#109,#103,.T.);
#128=EDGE_CURVE($,#110,#110,#104,.T.);
#129=EDGE_CURVE($,#111,#112,#13,.T.);
#130=EDGE_CURVE($,#112,#113,#14,.T.);
#131=EDGE_CURVE($,#113,#114,#15,.T.);
#132=EDGE_CURVE($,#114,#115,#16,.T.);
#133=EDGE_CURVE($,#115,#116,#17,.T.);
#134=EDGE_CURVE($,#116,#111,#18,.T.);
#135=EDGE_CURVE($,#111,#117,#19,.T.);
#136=EDGE_CURVE($,#117,#118,#20,.T.);
#137=EDGE_CURVE($,#112,#118,#21,.T.);
#138=EDGE_CURVE($,#116,#119,#22,.T.);
#139=EDGE_CURVE($,#119,#117,#23,.T.);
#140=EDGE_CURVE($,#115,#120,#24,.T.);
#141=EDGE_CURVE($,#120,#119,#25,.T.);
#142=EDGE_CURVE($,#114,#121,#26,.T.);
#143=EDGE_CURVE($,#121,#120,#27,.T.);
#144=EDGE_CURVE($,#113,#122,#28,.T.);
#145=EDGE_CURVE($,#122,#121,#29,.T.);
#146=EDGE_CURVE($,#118,#122,#30,.T.);
#147=EDGE_CURVE($,#123,#123,#105,.T.);
#148=ORIENTED_EDGE($,*,*,#124,.T.);
#149=ORIENTED_EDGE($,*,*,#125,.T.);
#150=ORIENTED_EDGE($,*,*,#126,.F.);
#151=ORIENTED_EDGE($,*,*,#124,.F.);
#152=ORIENTED_EDGE($,*,*,#127,.T.);
#153=ORIENTED_EDGE($,*,*,#125,.F.);
#154=ORIENTED_EDGE($,*,*,#126,.T.);
#155=ORIENTED_EDGE($,*,*,#128,.T.);
#156=ORIENTED_EDGE($,*,*,#129,.T.);
#157=ORIENTED_EDGE($,*,*,#130,.T.);
#158=ORIENTED_EDGE($,*,*,#131,.T.);
#159=ORIENTED_EDGE($,*,*,#132,.T.);
#160=ORIENTED_EDGE($,*,*,#133,.T.);
#161=ORIENTED_EDGE($,*,*,#134,.T.);
#162=ORIENTED_EDGE($,*,*,#128,.F.);
#163=ORIENTED_EDGE($,*,*,#129,.F.);
#164=ORIENTED_EDGE($,*,*,#135,.T.);
#165=ORIENTED_EDGE($,*,*,#136,.T.);
#166=ORIENTED_EDGE($,*,*,#137,.F.);
#167=ORIENTED_EDGE($,*,*,#134,.F.);
#168=ORIENTED_EDGE($,*,*,#138,.T.);
#169=ORIENTED_EDGE($,*,*,#139,.T.);
#170=ORIENTED_EDGE($,*,*,#135,.F.);
#171=ORIENTED_EDGE($,*,*,#133,.F.);
#172=ORIENTED_EDGE($,*,*,#140,.T.);
#173=ORIENTED_EDGE($,*,*,#141,.T.);
#174=ORIENTED_EDGE($,*,*,#138,.F.);
#175=ORIENTED_EDGE($,*,*,#132,.F.);
#176=ORIENTED_EDGE($,*,*,#142,.T.);
#177=ORIENTED_EDGE($,*,*,#143,.T.);
#178=ORIENTED_EDGE($,*,*,#140,.F.);
#179=ORIENTED_EDGE($,*,*,#131,.F.);
#180=ORIENTED_EDGE($,*,*,#144,.T.);
#181=ORIENTED_EDGE($,*,*,#145,.T.);
#182=ORIENTED_EDGE($,*,*,#142,.F.);
#183=ORIENTED_EDGE($,*,*,#130,.F.);
#184=ORIENTED_EDGE($,*,*,#137,.T.);
#185=ORIENTED_EDGE($,*,*,#146,.T.);
#186=ORIENTED_EDGE($,*,*,#144,.F.);
#187=ORIENTED_EDGE($,*,*,#147,.F.);
#188=ORIENTED_EDGE($,*,*,#146,.F.);
#189=ORIENTED_EDGE($,*,*,#136,.F.);
#190=ORIENTED_EDGE($,*,*,#139,.F.);
#191=ORIENTED_EDGE($,*,*,#141,.F.);
#192=ORIENTED_EDGE($,*,*,#143,.F.);
#193=ORIENTED_EDGE($,*,*,#145,.F.);
#194=ORIENTED_EDGE($,*,*,#147,.T.);
#195=ORIENTED_EDGE($,*,*,#127,.F.);
#196=CONICAL_SURFACE($,#214,6.5,45.);
#197=CONICAL_SURFACE($,#221,6.5,45.);
#198=ADVANCED_FACE($,(#70,#60),#196,.T.);
#199=ADVANCED_FACE($,(#71,#61),#58,.T.);
#200=ADVANCED_FACE($,(#62,#63),#49,.F.);
#201=ADVANCED_FACE($,(#72,#64),#197,.T.);
#202=ADVANCED_FACE($,(#65,#66),#50,.T.);
#203=ADVANCED_FACE($,(#73),#51,.F.);
#204=ADVANCED_FACE($,(#74),#52,.F.);
#205=ADVANCED_FACE($,(#75),#53,.F.);
#206=ADVANCED_FACE($,(#76),#54,.F.);
#207=ADVANCED_FACE($,(#77),#55,.F.);
#208=ADVANCED_FACE($,(#78),#56,.F.);
#209=ADVANCED_FACE($,(#67,#68),#57,.F.);
#210=ADVANCED_FACE($,(#79,#69),#59,.F.);
#211=CLOSED_SHELL($,(#198,#199,#200,#201,#202,#203,#204,#205,#206,#207,
#208,#209,#210));
#212=MANIFOLD_SOLID_BREP('Volumenk\X\F6rper4',#211);
#213=AXIS2_PLACEMENT_3D('placement',#291,#233,#234);
#214=AXIS2_PLACEMENT_3D($,#292,#235,#236);
#215=AXIS2_PLACEMENT_3D($,#294,#237,#238);
#216=AXIS2_PLACEMENT_3D($,#296,#239,#240);
#217=AXIS2_PLACEMENT_3D($,#297,#241,#242);
#218=AXIS2_PLACEMENT_3D($,#299,#243,#244);
#219=AXIS2_PLACEMENT_3D($,#300,#245,#246);
#220=AXIS2_PLACEMENT_3D($,#302,#247,#248);
#221=AXIS2_PLACEMENT_3D($,#303,#249,#250);
#222=AXIS2_PLACEMENT_3D($,#305,#251,#252);
#223=AXIS2_PLACEMENT_3D($,#306,#253,#254);
#224=AXIS2_PLACEMENT_3D($,#319,#261,#262);
#225=AXIS2_PLACEMENT_3D($,#325,#266,#267);
#226=AXIS2_PLACEMENT_3D($,#329,#270,#271);
#227=AXIS2_PLACEMENT_3D($,#333,#274,#275);
#228=AXIS2_PLACEMENT_3D($,#337,#278,#279);
#229=AXIS2_PLACEMENT_3D($,#341,#282,#283);
#230=AXIS2_PLACEMENT_3D($,#343,#285,#286);
#231=AXIS2_PLACEMENT_3D($,#345,#287,#288);
#232=AXIS2_PLACEMENT_3D($,#346,#289,#290);
#233=DIRECTION('axis',(0.,0.,1.));
#234=DIRECTION('refdir',(1.,0.,0.));
#235=DIRECTION('center_axis',(0.,0.,1.));
#236=DIRECTION('ref_axis',(-1.,0.,0.));
#237=DIRECTION('center_axis',(0.,0.,-1.));
#238=DIRECTION('ref_axis',(-1.,0.,0.));
#239=DIRECTION('center_axis',(0.,0.,1.));
#240=DIRECTION('ref_axis',(-1.,0.,0.));
#241=DIRECTION('center_axis',(0.,0.,1.));
#242=DIRECTION('ref_axis',(-1.,0.,0.));
#243=DIRECTION('center_axis',(0.,0.,1.));
#244=DIRECTION('ref_axis',(-1.,0.,0.));
#245=DIRECTION('center_axis',(0.,0.,1.));
#246=DIRECTION('ref_axis',(1.,0.,0.));
#247=DIRECTION('center_axis',(0.,0.,1.));
#248=DIRECTION('ref_axis',(1.,0.,0.));
#249=DIRECTION('center_axis',(0.,0.,-1.));
#250=DIRECTION('ref_axis',(-1.,0.,0.));
#251=DIRECTION('center_axis',(0.,0.,-1.));
#252=DIRECTION('ref_axis',(-1.,0.,0.));
#253=DIRECTION('center_axis',(0.,0.,1.));
#254=DIRECTION('ref_axis',(1.,0.,0.));
#255=DIRECTION($,(0.5,-0.866025403784439,0.));
#256=DIRECTION($,(-0.5,-0.866025403784439,0.));
#257=DIRECTION($,(-1.,0.,0.));
#258=DIRECTION($,(-0.5,0.866025403784439,0.));
#259=DIRECTION($,(0.5,0.866025403784439,0.));
#260=DIRECTION($,(1.,4.80740671595891E-016,0.));
#261=DIRECTION('center_axis',(0.866025403784439,0.5,0.));
#262=DIRECTION('ref_axis',(0.5,-0.866025403784439,0.));
#263=DIRECTION($,(0.,0.,-1.));
#264=DIRECTION($,(0.5,-0.866025403784439,0.));
#265=DIRECTION($,(0.,0.,-1.));
#266=DIRECTION('center_axis',(-4.80740671595891E-016,1.,0.));
#267=DIRECTION('ref_axis',(1.,4.44089209850063E-016,0.));
#268=DIRECTION($,(0.,0.,-1.));
#269=DIRECTION($,(1.,4.80740671595891E-016,0.));
#270=DIRECTION('center_axis',(-0.866025403784439,0.5,0.));
#271=DIRECTION('ref_axis',(0.5,0.866025403784439,0.));
#272=DIRECTION($,(0.,0.,-1.));
#273=DIRECTION($,(0.5,0.866025403784439,0.));
#274=DIRECTION('center_axis',(-0.866025403784439,-0.5,0.));
#275=DIRECTION('ref_axis',(-0.5,0.866025403784439,0.));
#276=DIRECTION($,(0.,0.,-1.));
#277=DIRECTION($,(-0.5,0.866025403784439,0.));
#278=DIRECTION('center_axis',(0.,-1.,0.));
#279=DIRECTION('ref_axis',(-1.,0.,0.));
#280=DIRECTION($,(0.,0.,-1.));
#281=DIRECTION($,(-1.,0.,0.));
#282=DIRECTION('center_axis',(0.866025403784439,-0.5,0.));
#283=DIRECTION('ref_axis',(-0.5,-0.866025403784439,0.));
#284=DIRECTION($,(-0.5,-0.866025403784439,0.));
#285=DIRECTION('center_axis',(0.,0.,-1.));
#286=DIRECTION('ref_axis',(-1.,0.,0.));
#287=DIRECTION('center_axis',(0.,0.,1.));
#288=DIRECTION('ref_axis',(1.,0.,0.));
#289=DIRECTION('center_axis',(0.,0.,1.));
#290=DIRECTION('ref_axis',(1.,0.,0.));
#291=CARTESIAN_POINT('',(0.,0.,0.));
#292=CARTESIAN_POINT('Origin',(0.,0.,0.5));
#293=CARTESIAN_POINT('',(7.,-8.57252759403147E-016,1.));
#294=CARTESIAN_POINT('Origin',(0.,0.,1.));
#295=CARTESIAN_POINT('',(6.,7.34788079488412E-016,0.));
#296=CARTESIAN_POINT('Origin',(0.,0.,0.));
#297=CARTESIAN_POINT('Origin',(0.,0.,0.));
#298=CARTESIAN_POINT('',(7.,8.57252759403147E-016,17.));
#299=CARTESIAN_POINT('Origin',(0.,0.,17.));
#300=CARTESIAN_POINT('Origin',(-3.35776545337204E-016,1.32169407693471E-016,
0.));
#301=CARTESIAN_POINT('',(-3.3235,-4.07011363696623E-016,0.));
#302=CARTESIAN_POINT('Origin',(0.,0.,0.));
#303=CARTESIAN_POINT('Origin',(0.,0.,17.5));
#304=CARTESIAN_POINT('',(6.,-7.34788079488412E-016,18.));
#305=CARTESIAN_POINT('Origin',(0.,0.,18.));
#306=CARTESIAN_POINT('Origin',(-3.35776545337204E-016,1.32169407693471E-016,
18.));
#307=CARTESIAN_POINT('',(2.3094010767585,4.,18.));
#308=CARTESIAN_POINT('',(4.61880215351701,-5.28005341658312E-016,18.));
#309=CARTESIAN_POINT($,(2.88675134594813,3.,18.));
#310=CARTESIAN_POINT('',(2.3094010767585,-4.,18.));
#311=CARTESIAN_POINT($,(4.04145188432738,-1.,18.));
#312=CARTESIAN_POINT('',(-2.3094010767585,-4.,18.));
#313=CARTESIAN_POINT($,(1.15470053837925,-4.,18.));
#314=CARTESIAN_POINT('',(-4.618802153517,-1.27610707335757E-015,18.));
#315=CARTESIAN_POINT($,(-2.88675134594813,-3.,18.));
#316=CARTESIAN_POINT('',(-2.3094010767585,4.,18.));
#317=CARTESIAN_POINT($,(-4.04145188432738,0.999999999999999,18.));
#318=CARTESIAN_POINT($,(-1.15470053837925,4.,18.));
#319=CARTESIAN_POINT('Origin',(2.3094010767585,4.,18.));
#320=CARTESIAN_POINT('',(2.3094010767585,4.,14.));
#321=CARTESIAN_POINT($,(2.3094010767585,4.,18.));
#322=CARTESIAN_POINT('',(4.61880215351701,-5.28005341658312E-016,14.));
#323=CARTESIAN_POINT($,(2.3094010767585,4.,14.));
#324=CARTESIAN_POINT($,(4.61880215351701,-5.28005341658312E-016,18.));
#325=CARTESIAN_POINT('Origin',(-2.3094010767585,4.,18.));
#326=CARTESIAN_POINT('',(-2.3094010767585,4.,14.));
#327=CARTESIAN_POINT($,(-2.3094010767585,4.,18.));
#328=CARTESIAN_POINT($,(-2.3094010767585,4.,14.));
#329=CARTESIAN_POINT('Origin',(-4.618802153517,-1.27610707335757E-015,18.));
#330=CARTESIAN_POINT('',(-4.618802153517,-1.27610707335757E-015,14.));
#331=CARTESIAN_POINT($,(-4.618802153517,-1.27610707335757E-015,18.));
#332=CARTESIAN_POINT($,(-4.618802153517,-1.27610707335757E-015,14.));
#333=CARTESIAN_POINT('Origin',(-2.3094010767585,-4.,18.));
#334=CARTESIAN_POINT('',(-2.3094010767585,-4.,14.));
#335=CARTESIAN_POINT($,(-2.3094010767585,-4.,18.));
#336=CARTESIAN_POINT($,(-2.3094010767585,-4.,14.));
#337=CARTESIAN_POINT('Origin',(2.3094010767585,-4.,18.));
#338=CARTESIAN_POINT('',(2.3094010767585,-4.,14.));
#339=CARTESIAN_POINT($,(2.3094010767585,-4.,18.));
#340=CARTESIAN_POINT($,(2.3094010767585,-4.,14.));
#341=CARTESIAN_POINT('Origin',(4.61880215351701,-5.28005341658312E-016,
18.));
#342=CARTESIAN_POINT($,(4.61880215351701,-5.28005341658312E-016,14.));
#343=CARTESIAN_POINT('Origin',(1.11022302462516E-015,-3.38020784715861E-016,
14.));
#344=CARTESIAN_POINT('',(3.3235,4.07011363696623E-016,14.));
#345=CARTESIAN_POINT('Origin',(0.,0.,14.));
#346=CARTESIAN_POINT('Origin',(0.,0.,-8.7581763205193));
#347=UNCERTAINTY_MEASURE_WITH_UNIT(LENGTH_MEASURE(0.01),#349,
'DISTANCE_ACCURACY_VALUE',
'Maximum model space distance between geometric entities at asserted c
onnectivities');
#348=(
GEOMETRIC_REPRESENTATION_CONTEXT(3)
GLOBAL_UNCERTAINTY_ASSIGNED_CONTEXT((#347))
GLOBAL_UNIT_ASSIGNED_CONTEXT((#349,#352,#350))
REPRESENTATION_CONTEXT('','3D')
);
#349=(
LENGTH_UNIT()
NAMED_UNIT(*)
SI_UNIT(.MILLI.,.METRE.)
);
#350=(
NAMED_UNIT(*)
SI_UNIT($,.STERADIAN.)
SOLID_ANGLE_UNIT()
);
#351=DIMENSIONAL_EXPONENTS(0.,0.,0.,0.,0.,0.,0.);
#352=(
CONVERSION_BASED_UNIT('degree',#354)
NAMED_UNIT(#351)
PLANE_ANGLE_UNIT()
);
#353=(
NAMED_UNIT(*)
PLANE_ANGLE_UNIT()
SI_UNIT($,.RADIAN.)
);
#354=PLANE_ANGLE_MEASURE_WITH_UNIT(PLANE_ANGLE_MEASURE(0.01745329252),#353);
#355=SHAPE_DEFINITION_REPRESENTATION(#356,#357);
#356=PRODUCT_DEFINITION_SHAPE('',$,#359);
#357=SHAPE_REPRESENTATION('',(#213),#348);
#358=PRODUCT_DEFINITION_CONTEXT('3D Mechanical Parts',#362,'design');
#359=PRODUCT_DEFINITION('18101_KriTec_Verbundmuffe_14x18_M8',
'18101_KriTec_Verbundmuffe_14x18_M8',#360,#358);
#360=PRODUCT_DEFINITION_FORMATION('',$,#364);
#361=APPLICATION_PROTOCOL_DEFINITION('international standard',
'automotive_design',2009,#362);
#362=APPLICATION_CONTEXT(
'Core Data for Automotive Mechanical Design Process');
#363=PRODUCT_CONTEXT('3D Mechanical Parts',#362,'mechanical');
#364=PRODUCT('18101_KriTec_Verbundmuffe_14x18_M8',
'18101_KriTec_Verbundmuffe_14x18_M8',$,(#363));
#365=PRESENTATION_STYLE_ASSIGNMENT((#366));
#366=SURFACE_STYLE_USAGE(.BOTH.,#367);
#367=SURFACE_SIDE_STYLE($,(#368));
#368=SURFACE_STYLE_FILL_AREA(#369);
#369=FILL_AREA_STYLE($,(#370));
#370=FILL_AREA_STYLE_COLOUR($,#371);
#371=COLOUR_RGB('',0.956862745098039,0.956862745098039,0.956862745098039);
ENDSEC;
END-ISO-10303-21;
