ISO-10303-21;
HEADER;
/* Generated by software containing ST-Developer
 * from STEP Tools, Inc. (www.steptools.com) 
 */

FILE_DESCRIPTION(
/* description */ (
'KriTec Kombi-Blechschraube,Stahl verzinkt, Sechskantkopf 6,3x20 DIN79
76'),
/* implementation_level */ '2;1');

FILE_NAME(
/* name */ 
'S:\\Bilder_neu\\17650_KriTec_Kombi_Blechschraube_Stahl_verzinkt_Sechs
kantkopf_6,3x20_DIN7976\\Inventordateien\\17650_KriTec_Kombi_Blechschr
aube_Stahl_verzinkt_Sechskantkopf_6,3x20_DIN7976.stp',
/* time_stamp */ '2018-06-25T15:20:26+02:00',
/* author */ ('kostic'),
/* organization */ (''),
/* preprocessor_version */ 'ST-DEVELOPER v16.1',
/* originating_system */ 'Autodesk Inventor 2016',
/* authorisation */ '');

FILE_SCHEMA (('AUTOMOTIVE_DESIGN { 1 0 10303 214 3 1 1 }'));
ENDSEC;

DATA;
#10=MECHANICAL_DESIGN_GEOMETRIC_PRESENTATION_REPRESENTATION('',(#15,#16),
#548);
#11=SHAPE_REPRESENTATION_RELATIONSHIP('SRR','None',#557,#12);
#12=ADVANCED_BREP_SHAPE_REPRESENTATION('',(#13),#547);
#13=MANIFOLD_SOLID_BREP('Solid1',#310);
#14=TOROIDAL_SURFACE('',#338,3.40000000000006,0.250000000000063);
#15=STYLED_ITEM('',(#567),#304);
#16=STYLED_ITEM('',(#566),#13);
#17=CONICAL_SURFACE('',#326,5.45,75.0000000000006);
#18=CONICAL_SURFACE('',#328,5.45,75.0000000000006);
#19=CONICAL_SURFACE('',#330,5.45,75.0000000000006);
#20=CONICAL_SURFACE('',#332,5.45,75.0000000000006);
#21=CONICAL_SURFACE('',#334,5.45,75.0000000000006);
#22=CONICAL_SURFACE('',#336,5.45,75.0000000000006);
#23=CONICAL_SURFACE('',#347,1.575,27.699472808055);
#24=(
BOUNDED_CURVE()
B_SPLINE_CURVE(2,(#462,#463,#464),.UNSPECIFIED.,.F.,.F.)
B_SPLINE_CURVE_WITH_KNOTS((3,3),(0.0220895269667805,0.314338602652558),
 .UNSPECIFIED.)
CURVE()
GEOMETRIC_REPRESENTATION_ITEM()
RATIONAL_B_SPLINE_CURVE((1.00575346170555,1.04093648351227,1.))
REPRESENTATION_ITEM('')
);
#25=(
BOUNDED_CURVE()
B_SPLINE_CURVE(2,(#468,#469,#470),.UNSPECIFIED.,.F.,.F.)
B_SPLINE_CURVE_WITH_KNOTS((3,3),(0.314338602652558,0.606587678338336),
 .UNSPECIFIED.)
CURVE()
GEOMETRIC_REPRESENTATION_ITEM()
RATIONAL_B_SPLINE_CURVE((1.,1.04093648351227,1.00575346170555))
REPRESENTATION_ITEM('')
);
#26=(
BOUNDED_CURVE()
B_SPLINE_CURVE(2,(#473,#474,#475),.UNSPECIFIED.,.F.,.F.)
B_SPLINE_CURVE_WITH_KNOTS((3,3),(0.0220895269667819,0.314338602652557),
 .UNSPECIFIED.)
CURVE()
GEOMETRIC_REPRESENTATION_ITEM()
RATIONAL_B_SPLINE_CURVE((1.00575346170555,1.04093648351221,1.))
REPRESENTATION_ITEM('')
);
#27=(
BOUNDED_CURVE()
B_SPLINE_CURVE(2,(#478,#479,#480),.UNSPECIFIED.,.F.,.F.)
B_SPLINE_CURVE_WITH_KNOTS((3,3),(0.314338602652557,0.606587678338344),
 .UNSPECIFIED.)
CURVE()
GEOMETRIC_REPRESENTATION_ITEM()
RATIONAL_B_SPLINE_CURVE((1.,1.04093648351224,1.00575346170555))
REPRESENTATION_ITEM('')
);
#28=(
BOUNDED_CURVE()
B_SPLINE_CURVE(2,(#483,#484,#485),.UNSPECIFIED.,.F.,.F.)
B_SPLINE_CURVE_WITH_KNOTS((3,3),(0.0220895269667705,0.314338602652557),
 .UNSPECIFIED.)
CURVE()
GEOMETRIC_REPRESENTATION_ITEM()
RATIONAL_B_SPLINE_CURVE((1.00575346170555,1.04093648351223,1.))
REPRESENTATION_ITEM('')
);
#29=(
BOUNDED_CURVE()
B_SPLINE_CURVE(2,(#488,#489,#490),.UNSPECIFIED.,.F.,.F.)
B_SPLINE_CURVE_WITH_KNOTS((3,3),(0.314338602652557,0.606587678338333),
 .UNSPECIFIED.)
CURVE()
GEOMETRIC_REPRESENTATION_ITEM()
RATIONAL_B_SPLINE_CURVE((1.,1.04093648351223,1.00575346170555))
REPRESENTATION_ITEM('')
);
#30=(
BOUNDED_CURVE()
B_SPLINE_CURVE(2,(#493,#494,#495),.UNSPECIFIED.,.F.,.F.)
B_SPLINE_CURVE_WITH_KNOTS((3,3),(0.314338602652557,0.606587678338333),
 .UNSPECIFIED.)
CURVE()
GEOMETRIC_REPRESENTATION_ITEM()
RATIONAL_B_SPLINE_CURVE((1.,1.04093648351223,1.00575346170555))
REPRESENTATION_ITEM('')
);
#31=(
BOUNDED_CURVE()
B_SPLINE_CURVE(2,(#497,#498,#499),.UNSPECIFIED.,.F.,.F.)
B_SPLINE_CURVE_WITH_KNOTS((3,3),(0.0220895269667705,0.314338602652557),
 .UNSPECIFIED.)
CURVE()
GEOMETRIC_REPRESENTATION_ITEM()
RATIONAL_B_SPLINE_CURVE((1.00575346170555,1.04093648351223,1.))
REPRESENTATION_ITEM('')
);
#32=(
BOUNDED_CURVE()
B_SPLINE_CURVE(2,(#503,#504,#505),.UNSPECIFIED.,.F.,.F.)
B_SPLINE_CURVE_WITH_KNOTS((3,3),(0.314338602652557,0.606587678338344),
 .UNSPECIFIED.)
CURVE()
GEOMETRIC_REPRESENTATION_ITEM()
RATIONAL_B_SPLINE_CURVE((1.,1.04093648351224,1.00575346170555))
REPRESENTATION_ITEM('')
);
#33=(
BOUNDED_CURVE()
B_SPLINE_CURVE(2,(#507,#508,#509),.UNSPECIFIED.,.F.,.F.)
B_SPLINE_CURVE_WITH_KNOTS((3,3),(0.0220895269667819,0.314338602652557),
 .UNSPECIFIED.)
CURVE()
GEOMETRIC_REPRESENTATION_ITEM()
RATIONAL_B_SPLINE_CURVE((1.00575346170555,1.04093648351221,1.))
REPRESENTATION_ITEM('')
);
#34=(
BOUNDED_CURVE()
B_SPLINE_CURVE(2,(#513,#514,#515),.UNSPECIFIED.,.F.,.F.)
B_SPLINE_CURVE_WITH_KNOTS((3,3),(0.314338602652558,0.606587678338336),
 .UNSPECIFIED.)
CURVE()
GEOMETRIC_REPRESENTATION_ITEM()
RATIONAL_B_SPLINE_CURVE((1.,1.04093648351227,1.00575346170555))
REPRESENTATION_ITEM('')
);
#35=(
BOUNDED_CURVE()
B_SPLINE_CURVE(2,(#516,#517,#518),.UNSPECIFIED.,.F.,.F.)
B_SPLINE_CURVE_WITH_KNOTS((3,3),(0.0220895269667805,0.314338602652558),
 .UNSPECIFIED.)
CURVE()
GEOMETRIC_REPRESENTATION_ITEM()
RATIONAL_B_SPLINE_CURVE((1.00575346170555,1.04093648351227,1.))
REPRESENTATION_ITEM('')
);
#36=CYLINDRICAL_SURFACE('',#314,3.25);
#37=CYLINDRICAL_SURFACE('',#317,9.);
#38=CYLINDRICAL_SURFACE('',#342,4.5454545454545);
#39=CYLINDRICAL_SURFACE('',#345,3.15);
#40=FACE_BOUND('',#95,.T.);
#41=FACE_BOUND('',#97,.T.);
#42=FACE_BOUND('',#99,.T.);
#43=FACE_BOUND('',#101,.T.);
#44=FACE_BOUND('',#115,.T.);
#45=FACE_BOUND('',#117,.T.);
#46=FACE_BOUND('',#119,.T.);
#47=FACE_BOUND('',#122,.T.);
#48=LINE('',#440,#60);
#49=LINE('',#442,#61);
#50=LINE('',#444,#62);
#51=LINE('',#446,#63);
#52=LINE('',#448,#64);
#53=LINE('',#449,#65);
#54=LINE('',#465,#66);
#55=LINE('',#467,#67);
#56=LINE('',#477,#68);
#57=LINE('',#487,#69);
#58=LINE('',#500,#70);
#59=LINE('',#510,#71);
#60=VECTOR('',#354,5.7735026918962);
#61=VECTOR('',#355,5.77350269189629);
#62=VECTOR('',#356,5.77350269189629);
#63=VECTOR('',#357,5.7735026918962);
#64=VECTOR('',#358,5.77350269189629);
#65=VECTOR('',#359,5.77350269189629);
#66=VECTOR('',#374,4.49274057836311);
#67=VECTOR('',#375,4.49274057836311);
#68=VECTOR('',#378,4.4927405783631);
#69=VECTOR('',#381,4.49274057836311);
#70=VECTOR('',#384,4.4927405783631);
#71=VECTOR('',#387,4.49274057836311);
#72=FACE_OUTER_BOUND('',#94,.T.);
#73=FACE_OUTER_BOUND('',#96,.T.);
#74=FACE_OUTER_BOUND('',#98,.T.);
#75=FACE_OUTER_BOUND('',#100,.T.);
#76=FACE_OUTER_BOUND('',#102,.T.);
#77=FACE_OUTER_BOUND('',#103,.T.);
#78=FACE_OUTER_BOUND('',#104,.T.);
#79=FACE_OUTER_BOUND('',#105,.T.);
#80=FACE_OUTER_BOUND('',#106,.T.);
#81=FACE_OUTER_BOUND('',#107,.T.);
#82=FACE_OUTER_BOUND('',#108,.T.);
#83=FACE_OUTER_BOUND('',#109,.T.);
#84=FACE_OUTER_BOUND('',#110,.T.);
#85=FACE_OUTER_BOUND('',#111,.T.);
#86=FACE_OUTER_BOUND('',#112,.T.);
#87=FACE_OUTER_BOUND('',#113,.T.);
#88=FACE_OUTER_BOUND('',#114,.T.);
#89=FACE_OUTER_BOUND('',#116,.T.);
#90=FACE_OUTER_BOUND('',#118,.T.);
#91=FACE_OUTER_BOUND('',#120,.T.);
#92=FACE_OUTER_BOUND('',#121,.T.);
#93=FACE_OUTER_BOUND('',#123,.T.);
#94=EDGE_LOOP('',(#202));
#95=EDGE_LOOP('',(#203,#204,#205,#206,#207,#208));
#96=EDGE_LOOP('',(#209));
#97=EDGE_LOOP('',(#210));
#98=EDGE_LOOP('',(#211));
#99=EDGE_LOOP('',(#212));
#100=EDGE_LOOP('',(#213));
#101=EDGE_LOOP('',(#214));
#102=EDGE_LOOP('',(#215,#216,#217,#218,#219));
#103=EDGE_LOOP('',(#220,#221,#222,#223,#224));
#104=EDGE_LOOP('',(#225,#226,#227,#228,#229));
#105=EDGE_LOOP('',(#230,#231,#232,#233,#234));
#106=EDGE_LOOP('',(#235,#236,#237,#238,#239));
#107=EDGE_LOOP('',(#240,#241,#242,#243,#244));
#108=EDGE_LOOP('',(#245,#246,#247));
#109=EDGE_LOOP('',(#248,#249,#250));
#110=EDGE_LOOP('',(#251,#252,#253));
#111=EDGE_LOOP('',(#254,#255,#256));
#112=EDGE_LOOP('',(#257,#258,#259));
#113=EDGE_LOOP('',(#260,#261,#262));
#114=EDGE_LOOP('',(#263));
#115=EDGE_LOOP('',(#264));
#116=EDGE_LOOP('',(#265,#266,#267,#268,#269,#270));
#117=EDGE_LOOP('',(#271));
#118=EDGE_LOOP('',(#272));
#119=EDGE_LOOP('',(#273));
#120=EDGE_LOOP('',(#274));
#121=EDGE_LOOP('',(#275));
#122=EDGE_LOOP('',(#276));
#123=EDGE_LOOP('',(#277));
#124=CIRCLE('',#313,9.);
#125=CIRCLE('',#315,3.25);
#126=CIRCLE('',#316,3.25);
#127=CIRCLE('',#318,9.);
#128=CIRCLE('',#327,5.);
#129=CIRCLE('',#329,5.);
#130=CIRCLE('',#331,5.);
#131=CIRCLE('',#333,5.);
#132=CIRCLE('',#335,5.);
#133=CIRCLE('',#337,5.);
#134=CIRCLE('',#339,3.15);
#135=CIRCLE('',#341,4.5454545454545);
#136=CIRCLE('',#343,4.5454545454545);
#137=CIRCLE('',#346,3.15);
#138=VERTEX_POINT('',#436);
#139=VERTEX_POINT('',#438);
#140=VERTEX_POINT('',#439);
#141=VERTEX_POINT('',#441);
#142=VERTEX_POINT('',#443);
#143=VERTEX_POINT('',#445);
#144=VERTEX_POINT('',#447);
#145=VERTEX_POINT('',#451);
#146=VERTEX_POINT('',#453);
#147=VERTEX_POINT('',#456);
#148=VERTEX_POINT('',#460);
#149=VERTEX_POINT('',#461);
#150=VERTEX_POINT('',#466);
#151=VERTEX_POINT('',#472);
#152=VERTEX_POINT('',#476);
#153=VERTEX_POINT('',#482);
#154=VERTEX_POINT('',#486);
#155=VERTEX_POINT('',#492);
#156=VERTEX_POINT('',#496);
#157=VERTEX_POINT('',#502);
#158=VERTEX_POINT('',#506);
#159=VERTEX_POINT('',#512);
#160=VERTEX_POINT('',#532);
#161=VERTEX_POINT('',#535);
#162=VERTEX_POINT('',#538);
#163=VERTEX_POINT('',#542);
#164=EDGE_CURVE('',#138,#138,#124,.T.);
#165=EDGE_CURVE('',#139,#140,#48,.T.);
#166=EDGE_CURVE('',#140,#141,#49,.T.);
#167=EDGE_CURVE('',#141,#142,#50,.T.);
#168=EDGE_CURVE('',#142,#143,#51,.T.);
#169=EDGE_CURVE('',#143,#144,#52,.T.);
#170=EDGE_CURVE('',#144,#139,#53,.T.);
#171=EDGE_CURVE('',#145,#145,#125,.T.);
#172=EDGE_CURVE('',#146,#146,#126,.T.);
#173=EDGE_CURVE('',#147,#147,#127,.T.);
#174=EDGE_CURVE('',#148,#149,#24,.T.);
#175=EDGE_CURVE('',#140,#148,#54,.T.);
#176=EDGE_CURVE('',#139,#150,#55,.T.);
#177=EDGE_CURVE('',#149,#150,#25,.T.);
#178=EDGE_CURVE('',#150,#151,#26,.T.);
#179=EDGE_CURVE('',#144,#152,#56,.T.);
#180=EDGE_CURVE('',#151,#152,#27,.T.);
#181=EDGE_CURVE('',#152,#153,#28,.T.);
#182=EDGE_CURVE('',#143,#154,#57,.T.);
#183=EDGE_CURVE('',#153,#154,#29,.T.);
#184=EDGE_CURVE('',#155,#148,#30,.T.);
#185=EDGE_CURVE('',#156,#155,#31,.T.);
#186=EDGE_CURVE('',#141,#156,#58,.T.);
#187=EDGE_CURVE('',#157,#156,#32,.T.);
#188=EDGE_CURVE('',#158,#157,#33,.T.);
#189=EDGE_CURVE('',#142,#158,#59,.T.);
#190=EDGE_CURVE('',#159,#158,#34,.T.);
#191=EDGE_CURVE('',#154,#159,#35,.T.);
#192=EDGE_CURVE('',#159,#157,#128,.T.);
#193=EDGE_CURVE('',#157,#155,#129,.T.);
#194=EDGE_CURVE('',#155,#149,#130,.T.);
#195=EDGE_CURVE('',#149,#151,#131,.T.);
#196=EDGE_CURVE('',#151,#153,#132,.T.);
#197=EDGE_CURVE('',#153,#159,#133,.T.);
#198=EDGE_CURVE('',#160,#160,#134,.T.);
#199=EDGE_CURVE('',#161,#161,#135,.T.);
#200=EDGE_CURVE('',#162,#162,#136,.T.);
#201=EDGE_CURVE('',#163,#163,#137,.T.);
#202=ORIENTED_EDGE('',*,*,#164,.F.);
#203=ORIENTED_EDGE('',*,*,#165,.T.);
#204=ORIENTED_EDGE('',*,*,#166,.T.);
#205=ORIENTED_EDGE('',*,*,#167,.T.);
#206=ORIENTED_EDGE('',*,*,#168,.T.);
#207=ORIENTED_EDGE('',*,*,#169,.T.);
#208=ORIENTED_EDGE('',*,*,#170,.T.);
#209=ORIENTED_EDGE('',*,*,#171,.T.);
#210=ORIENTED_EDGE('',*,*,#172,.F.);
#211=ORIENTED_EDGE('',*,*,#173,.F.);
#212=ORIENTED_EDGE('',*,*,#164,.T.);
#213=ORIENTED_EDGE('',*,*,#173,.T.);
#214=ORIENTED_EDGE('',*,*,#171,.F.);
#215=ORIENTED_EDGE('',*,*,#174,.F.);
#216=ORIENTED_EDGE('',*,*,#175,.F.);
#217=ORIENTED_EDGE('',*,*,#165,.F.);
#218=ORIENTED_EDGE('',*,*,#176,.T.);
#219=ORIENTED_EDGE('',*,*,#177,.F.);
#220=ORIENTED_EDGE('',*,*,#178,.F.);
#221=ORIENTED_EDGE('',*,*,#176,.F.);
#222=ORIENTED_EDGE('',*,*,#170,.F.);
#223=ORIENTED_EDGE('',*,*,#179,.T.);
#224=ORIENTED_EDGE('',*,*,#180,.F.);
#225=ORIENTED_EDGE('',*,*,#181,.F.);
#226=ORIENTED_EDGE('',*,*,#179,.F.);
#227=ORIENTED_EDGE('',*,*,#169,.F.);
#228=ORIENTED_EDGE('',*,*,#182,.T.);
#229=ORIENTED_EDGE('',*,*,#183,.F.);
#230=ORIENTED_EDGE('',*,*,#184,.F.);
#231=ORIENTED_EDGE('',*,*,#185,.F.);
#232=ORIENTED_EDGE('',*,*,#186,.F.);
#233=ORIENTED_EDGE('',*,*,#166,.F.);
#234=ORIENTED_EDGE('',*,*,#175,.T.);
#235=ORIENTED_EDGE('',*,*,#187,.F.);
#236=ORIENTED_EDGE('',*,*,#188,.F.);
#237=ORIENTED_EDGE('',*,*,#189,.F.);
#238=ORIENTED_EDGE('',*,*,#167,.F.);
#239=ORIENTED_EDGE('',*,*,#186,.T.);
#240=ORIENTED_EDGE('',*,*,#190,.F.);
#241=ORIENTED_EDGE('',*,*,#191,.F.);
#242=ORIENTED_EDGE('',*,*,#182,.F.);
#243=ORIENTED_EDGE('',*,*,#168,.F.);
#244=ORIENTED_EDGE('',*,*,#189,.T.);
#245=ORIENTED_EDGE('',*,*,#188,.T.);
#246=ORIENTED_EDGE('',*,*,#192,.F.);
#247=ORIENTED_EDGE('',*,*,#190,.T.);
#248=ORIENTED_EDGE('',*,*,#185,.T.);
#249=ORIENTED_EDGE('',*,*,#193,.F.);
#250=ORIENTED_EDGE('',*,*,#187,.T.);
#251=ORIENTED_EDGE('',*,*,#174,.T.);
#252=ORIENTED_EDGE('',*,*,#194,.F.);
#253=ORIENTED_EDGE('',*,*,#184,.T.);
#254=ORIENTED_EDGE('',*,*,#177,.T.);
#255=ORIENTED_EDGE('',*,*,#178,.T.);
#256=ORIENTED_EDGE('',*,*,#195,.F.);
#257=ORIENTED_EDGE('',*,*,#180,.T.);
#258=ORIENTED_EDGE('',*,*,#181,.T.);
#259=ORIENTED_EDGE('',*,*,#196,.F.);
#260=ORIENTED_EDGE('',*,*,#183,.T.);
#261=ORIENTED_EDGE('',*,*,#191,.T.);
#262=ORIENTED_EDGE('',*,*,#197,.F.);
#263=ORIENTED_EDGE('',*,*,#198,.F.);
#264=ORIENTED_EDGE('',*,*,#172,.T.);
#265=ORIENTED_EDGE('',*,*,#193,.T.);
#266=ORIENTED_EDGE('',*,*,#194,.T.);
#267=ORIENTED_EDGE('',*,*,#195,.T.);
#268=ORIENTED_EDGE('',*,*,#196,.T.);
#269=ORIENTED_EDGE('',*,*,#197,.T.);
#270=ORIENTED_EDGE('',*,*,#192,.T.);
#271=ORIENTED_EDGE('',*,*,#199,.T.);
#272=ORIENTED_EDGE('',*,*,#200,.T.);
#273=ORIENTED_EDGE('',*,*,#199,.F.);
#274=ORIENTED_EDGE('',*,*,#200,.F.);
#275=ORIENTED_EDGE('',*,*,#198,.T.);
#276=ORIENTED_EDGE('',*,*,#201,.F.);
#277=ORIENTED_EDGE('',*,*,#201,.T.);
#278=PLANE('',#312);
#279=PLANE('',#319);
#280=PLANE('',#320);
#281=PLANE('',#321);
#282=PLANE('',#322);
#283=PLANE('',#323);
#284=PLANE('',#324);
#285=PLANE('',#325);
#286=PLANE('',#340);
#287=PLANE('',#344);
#288=ADVANCED_FACE('',(#72,#40),#278,.T.);
#289=ADVANCED_FACE('',(#73,#41),#36,.F.);
#290=ADVANCED_FACE('',(#74,#42),#37,.T.);
#291=ADVANCED_FACE('',(#75,#43),#279,.T.);
#292=ADVANCED_FACE('',(#76),#280,.T.);
#293=ADVANCED_FACE('',(#77),#281,.T.);
#294=ADVANCED_FACE('',(#78),#282,.T.);
#295=ADVANCED_FACE('',(#79),#283,.T.);
#296=ADVANCED_FACE('',(#80),#284,.T.);
#297=ADVANCED_FACE('',(#81),#285,.T.);
#298=ADVANCED_FACE('',(#82),#17,.T.);
#299=ADVANCED_FACE('',(#83),#18,.T.);
#300=ADVANCED_FACE('',(#84),#19,.T.);
#301=ADVANCED_FACE('',(#85),#20,.T.);
#302=ADVANCED_FACE('',(#86),#21,.T.);
#303=ADVANCED_FACE('',(#87),#22,.T.);
#304=ADVANCED_FACE('',(#88,#44),#14,.F.);
#305=ADVANCED_FACE('',(#89,#45),#286,.T.);
#306=ADVANCED_FACE('',(#90,#46),#38,.F.);
#307=ADVANCED_FACE('',(#91),#287,.F.);
#308=ADVANCED_FACE('',(#92,#47),#39,.T.);
#309=ADVANCED_FACE('',(#93),#23,.T.);
#310=CLOSED_SHELL('',(#288,#289,#290,#291,#292,#293,#294,#295,#296,#297,
#298,#299,#300,#301,#302,#303,#304,#305,#306,#307,#308,#309));
#311=AXIS2_PLACEMENT_3D('placement',#434,#348,#349);
#312=AXIS2_PLACEMENT_3D('',#435,#350,#351);
#313=AXIS2_PLACEMENT_3D('',#437,#352,#353);
#314=AXIS2_PLACEMENT_3D('',#450,#360,#361);
#315=AXIS2_PLACEMENT_3D('',#452,#362,#363);
#316=AXIS2_PLACEMENT_3D('',#454,#364,#365);
#317=AXIS2_PLACEMENT_3D('',#455,#366,#367);
#318=AXIS2_PLACEMENT_3D('',#457,#368,#369);
#319=AXIS2_PLACEMENT_3D('',#458,#370,#371);
#320=AXIS2_PLACEMENT_3D('',#459,#372,#373);
#321=AXIS2_PLACEMENT_3D('',#471,#376,#377);
#322=AXIS2_PLACEMENT_3D('',#481,#379,#380);
#323=AXIS2_PLACEMENT_3D('',#491,#382,#383);
#324=AXIS2_PLACEMENT_3D('',#501,#385,#386);
#325=AXIS2_PLACEMENT_3D('',#511,#388,#389);
#326=AXIS2_PLACEMENT_3D('',#519,#390,#391);
#327=AXIS2_PLACEMENT_3D('',#520,#392,#393);
#328=AXIS2_PLACEMENT_3D('',#521,#394,#395);
#329=AXIS2_PLACEMENT_3D('',#522,#396,#397);
#330=AXIS2_PLACEMENT_3D('',#523,#398,#399);
#331=AXIS2_PLACEMENT_3D('',#524,#400,#401);
#332=AXIS2_PLACEMENT_3D('',#525,#402,#403);
#333=AXIS2_PLACEMENT_3D('',#526,#404,#405);
#334=AXIS2_PLACEMENT_3D('',#527,#406,#407);
#335=AXIS2_PLACEMENT_3D('',#528,#408,#409);
#336=AXIS2_PLACEMENT_3D('',#529,#410,#411);
#337=AXIS2_PLACEMENT_3D('',#530,#412,#413);
#338=AXIS2_PLACEMENT_3D('',#531,#414,#415);
#339=AXIS2_PLACEMENT_3D('',#533,#416,#417);
#340=AXIS2_PLACEMENT_3D('',#534,#418,#419);
#341=AXIS2_PLACEMENT_3D('',#536,#420,#421);
#342=AXIS2_PLACEMENT_3D('',#537,#422,#423);
#343=AXIS2_PLACEMENT_3D('',#539,#424,#425);
#344=AXIS2_PLACEMENT_3D('',#540,#426,#427);
#345=AXIS2_PLACEMENT_3D('',#541,#428,#429);
#346=AXIS2_PLACEMENT_3D('',#543,#430,#431);
#347=AXIS2_PLACEMENT_3D('',#544,#432,#433);
#348=DIRECTION('axis',(0.,0.,1.));
#349=DIRECTION('refdir',(1.,0.,0.));
#350=DIRECTION('center_axis',(-1.,0.,0.));
#351=DIRECTION('ref_axis',(0.,0.,1.));
#352=DIRECTION('center_axis',(1.,0.,0.));
#353=DIRECTION('ref_axis',(0.,1.,0.));
#354=DIRECTION('',(0.,1.,0.));
#355=DIRECTION('',(0.,0.500000000000009,0.866025403784433));
#356=DIRECTION('',(0.,-0.500000000000009,0.866025403784433));
#357=DIRECTION('',(0.,-1.,0.));
#358=DIRECTION('',(0.,-0.500000000000009,-0.866025403784433));
#359=DIRECTION('',(0.,0.500000000000009,-0.866025403784433));
#360=DIRECTION('center_axis',(1.,0.,0.));
#361=DIRECTION('ref_axis',(0.,1.,0.));
#362=DIRECTION('center_axis',(1.,0.,0.));
#363=DIRECTION('ref_axis',(0.,1.,0.));
#364=DIRECTION('center_axis',(1.,0.,0.));
#365=DIRECTION('ref_axis',(0.,1.,0.));
#366=DIRECTION('center_axis',(1.,0.,0.));
#367=DIRECTION('ref_axis',(0.,1.,0.));
#368=DIRECTION('center_axis',(1.,0.,0.));
#369=DIRECTION('ref_axis',(0.,1.,0.));
#370=DIRECTION('center_axis',(1.,0.,0.));
#371=DIRECTION('ref_axis',(0.,0.,-1.));
#372=DIRECTION('center_axis',(0.,0.,-1.));
#373=DIRECTION('ref_axis',(-1.,0.,0.));
#374=DIRECTION('',(-1.,0.,0.));
#375=DIRECTION('',(-1.,0.,0.));
#376=DIRECTION('center_axis',(0.,-0.866025403784433,-0.500000000000009));
#377=DIRECTION('ref_axis',(-1.,0.,0.));
#378=DIRECTION('',(-1.,0.,0.));
#379=DIRECTION('center_axis',(0.,-0.866025403784433,0.500000000000009));
#380=DIRECTION('ref_axis',(1.,0.,0.));
#381=DIRECTION('',(-1.,0.,0.));
#382=DIRECTION('center_axis',(0.,0.866025403784433,-0.500000000000009));
#383=DIRECTION('ref_axis',(-1.,0.,0.));
#384=DIRECTION('',(-1.,0.,0.));
#385=DIRECTION('center_axis',(0.,0.866025403784433,0.500000000000009));
#386=DIRECTION('ref_axis',(1.,0.,0.));
#387=DIRECTION('',(-1.,0.,0.));
#388=DIRECTION('center_axis',(0.,0.,1.));
#389=DIRECTION('ref_axis',(1.,0.,0.));
#390=DIRECTION('center_axis',(1.,0.,0.));
#391=DIRECTION('ref_axis',(0.,1.,0.));
#392=DIRECTION('center_axis',(-1.,0.,0.));
#393=DIRECTION('ref_axis',(0.,1.,0.));
#394=DIRECTION('center_axis',(1.,0.,0.));
#395=DIRECTION('ref_axis',(0.,1.,0.));
#396=DIRECTION('center_axis',(-1.,0.,0.));
#397=DIRECTION('ref_axis',(0.,1.,0.));
#398=DIRECTION('center_axis',(1.,0.,0.));
#399=DIRECTION('ref_axis',(0.,1.,0.));
#400=DIRECTION('center_axis',(-1.,0.,0.));
#401=DIRECTION('ref_axis',(0.,1.,0.));
#402=DIRECTION('center_axis',(1.,0.,0.));
#403=DIRECTION('ref_axis',(0.,1.,0.));
#404=DIRECTION('center_axis',(-1.,0.,0.));
#405=DIRECTION('ref_axis',(0.,1.,0.));
#406=DIRECTION('center_axis',(1.,0.,0.));
#407=DIRECTION('ref_axis',(0.,1.,0.));
#408=DIRECTION('center_axis',(-1.,0.,0.));
#409=DIRECTION('ref_axis',(0.,1.,0.));
#410=DIRECTION('center_axis',(1.,0.,0.));
#411=DIRECTION('ref_axis',(0.,1.,0.));
#412=DIRECTION('center_axis',(-1.,0.,0.));
#413=DIRECTION('ref_axis',(0.,1.,0.));
#414=DIRECTION('center_axis',(1.,0.,0.));
#415=DIRECTION('ref_axis',(0.,0.,-1.));
#416=DIRECTION('center_axis',(1.,0.,0.));
#417=DIRECTION('ref_axis',(0.,1.,0.));
#418=DIRECTION('center_axis',(-1.,0.,0.));
#419=DIRECTION('ref_axis',(0.,0.,1.));
#420=DIRECTION('center_axis',(1.,0.,0.));
#421=DIRECTION('ref_axis',(0.,1.,0.));
#422=DIRECTION('center_axis',(1.,0.,0.));
#423=DIRECTION('ref_axis',(0.,1.,0.));
#424=DIRECTION('center_axis',(1.,0.,0.));
#425=DIRECTION('ref_axis',(0.,1.,0.));
#426=DIRECTION('center_axis',(1.,0.,0.));
#427=DIRECTION('ref_axis',(0.,0.,-1.));
#428=DIRECTION('center_axis',(1.,0.,0.));
#429=DIRECTION('ref_axis',(0.,1.,0.));
#430=DIRECTION('center_axis',(1.,0.,0.));
#431=DIRECTION('ref_axis',(0.,1.,0.));
#432=DIRECTION('center_axis',(-1.,0.,0.));
#433=DIRECTION('ref_axis',(0.,1.,0.));
#434=CARTESIAN_POINT('',(0.,0.,0.));
#435=CARTESIAN_POINT('Origin',(0.,6.125,0.));
#436=CARTESIAN_POINT('',(0.,9.,0.));
#437=CARTESIAN_POINT('Origin',(0.,0.,0.));
#438=CARTESIAN_POINT('',(0.,-2.8867513459481,-5.));
#439=CARTESIAN_POINT('',(0.,2.8867513459481,-5.));
#440=CARTESIAN_POINT('',(0.,0.84412432702595,-5.));
#441=CARTESIAN_POINT('',(0.,5.7735026918963,0.));
#442=CARTESIAN_POINT('',(0.,4.18031418243516,-2.75948344442156));
#443=CARTESIAN_POINT('',(0.,2.8867513459481,5.));
#444=CARTESIAN_POINT('',(0.,5.62368985540926,0.259483444421561));
#445=CARTESIAN_POINT('',(0.,-2.8867513459481,5.));
#446=CARTESIAN_POINT('',(0.,3.73087567297405,5.));
#447=CARTESIAN_POINT('',(0.,-5.7735026918963,0.));
#448=CARTESIAN_POINT('',(0.,-3.03656418243511,4.74051655557849));
#449=CARTESIAN_POINT('',(0.,-4.47993985540922,-2.24051655557849));
#450=CARTESIAN_POINT('Origin',(0.8,0.,0.));
#451=CARTESIAN_POINT('',(1.6,3.25,0.));
#452=CARTESIAN_POINT('Origin',(1.6,0.,0.));
#453=CARTESIAN_POINT('',(0.0500000000000311,-3.25,-3.9801020972289E-16));
#454=CARTESIAN_POINT('Origin',(0.0500000000000311,0.,0.));
#455=CARTESIAN_POINT('Origin',(0.8,0.,0.));
#456=CARTESIAN_POINT('',(1.6,9.,0.));
#457=CARTESIAN_POINT('Origin',(1.6,0.,0.));
#458=CARTESIAN_POINT('Origin',(1.6,6.125,0.));
#459=CARTESIAN_POINT('Origin',(0.,-2.8867513459481,-5.));
#460=CARTESIAN_POINT('',(-4.49274057836311,2.8867513459481,-5.));
#461=CARTESIAN_POINT('',(-4.7,0.,-5.));
#462=CARTESIAN_POINT('Ctrl Pts',(-4.49274057836311,2.8867513459481,-5.));
#463=CARTESIAN_POINT('Ctrl Pts',(-4.7,1.33974596215561,-5.));
#464=CARTESIAN_POINT('Ctrl Pts',(-4.7,0.,-5.));
#465=CARTESIAN_POINT('',(0.,2.8867513459481,-5.));
#466=CARTESIAN_POINT('',(-4.49274057836311,-2.8867513459481,-5.));
#467=CARTESIAN_POINT('',(0.,-2.8867513459481,-5.));
#468=CARTESIAN_POINT('Ctrl Pts',(-4.7,0.,-5.));
#469=CARTESIAN_POINT('Ctrl Pts',(-4.7,-1.33974596215561,-5.));
#470=CARTESIAN_POINT('Ctrl Pts',(-4.49274057836311,-2.8867513459481,-5.));
#471=CARTESIAN_POINT('Origin',(0.,-5.7735026918963,0.));
#472=CARTESIAN_POINT('',(-4.7,-4.33012701892217,-2.50000000000005));
#473=CARTESIAN_POINT('Ctrl Pts',(-4.49274057836311,-2.8867513459481,-5.));
#474=CARTESIAN_POINT('Ctrl Pts',(-4.7,-3.66025403784436,-3.66025403784441));
#475=CARTESIAN_POINT('Ctrl Pts',(-4.7,-4.33012701892217,-2.50000000000005));
#476=CARTESIAN_POINT('',(-4.4927405783631,-5.7735026918963,0.));
#477=CARTESIAN_POINT('',(0.,-5.7735026918963,0.));
#478=CARTESIAN_POINT('Ctrl Pts',(-4.7,-4.33012701892217,-2.50000000000005));
#479=CARTESIAN_POINT('Ctrl Pts',(-4.7,-5.00000000000001,-1.33974596215564));
#480=CARTESIAN_POINT('Ctrl Pts',(-4.4927405783631,-5.7735026918963,0.));
#481=CARTESIAN_POINT('Origin',(0.,-2.8867513459481,5.));
#482=CARTESIAN_POINT('',(-4.7,-4.33012701892217,2.50000000000005));
#483=CARTESIAN_POINT('Ctrl Pts',(-4.4927405783631,-5.7735026918963,0.));
#484=CARTESIAN_POINT('Ctrl Pts',(-4.7,-5.,1.33974596215566));
#485=CARTESIAN_POINT('Ctrl Pts',(-4.7,-4.33012701892217,2.50000000000005));
#486=CARTESIAN_POINT('',(-4.49274057836311,-2.8867513459481,5.));
#487=CARTESIAN_POINT('',(0.,-2.8867513459481,5.));
#488=CARTESIAN_POINT('Ctrl Pts',(-4.7,-4.33012701892217,2.50000000000005));
#489=CARTESIAN_POINT('Ctrl Pts',(-4.7,-3.66025403784437,3.6602540378444));
#490=CARTESIAN_POINT('Ctrl Pts',(-4.49274057836311,-2.8867513459481,5.));
#491=CARTESIAN_POINT('Origin',(0.,2.8867513459481,-5.));
#492=CARTESIAN_POINT('',(-4.7,4.33012701892217,-2.50000000000005));
#493=CARTESIAN_POINT('Ctrl Pts',(-4.7,4.33012701892217,-2.50000000000005));
#494=CARTESIAN_POINT('Ctrl Pts',(-4.7,3.66025403784437,-3.6602540378444));
#495=CARTESIAN_POINT('Ctrl Pts',(-4.49274057836311,2.8867513459481,-5.));
#496=CARTESIAN_POINT('',(-4.4927405783631,5.7735026918963,0.));
#497=CARTESIAN_POINT('Ctrl Pts',(-4.4927405783631,5.7735026918963,0.));
#498=CARTESIAN_POINT('Ctrl Pts',(-4.7,5.,-1.33974596215566));
#499=CARTESIAN_POINT('Ctrl Pts',(-4.7,4.33012701892217,-2.50000000000005));
#500=CARTESIAN_POINT('',(0.,5.7735026918963,0.));
#501=CARTESIAN_POINT('Origin',(0.,5.7735026918963,0.));
#502=CARTESIAN_POINT('',(-4.7,4.33012701892217,2.50000000000005));
#503=CARTESIAN_POINT('Ctrl Pts',(-4.7,4.33012701892217,2.50000000000005));
#504=CARTESIAN_POINT('Ctrl Pts',(-4.7,5.00000000000001,1.33974596215564));
#505=CARTESIAN_POINT('Ctrl Pts',(-4.4927405783631,5.7735026918963,0.));
#506=CARTESIAN_POINT('',(-4.49274057836311,2.8867513459481,5.));
#507=CARTESIAN_POINT('Ctrl Pts',(-4.49274057836311,2.8867513459481,5.));
#508=CARTESIAN_POINT('Ctrl Pts',(-4.7,3.66025403784436,3.66025403784441));
#509=CARTESIAN_POINT('Ctrl Pts',(-4.7,4.33012701892217,2.50000000000005));
#510=CARTESIAN_POINT('',(0.,2.8867513459481,5.));
#511=CARTESIAN_POINT('Origin',(0.,2.8867513459481,5.));
#512=CARTESIAN_POINT('',(-4.7,0.,5.));
#513=CARTESIAN_POINT('Ctrl Pts',(-4.7,0.,5.));
#514=CARTESIAN_POINT('Ctrl Pts',(-4.7,1.33974596215561,5.));
#515=CARTESIAN_POINT('Ctrl Pts',(-4.49274057836311,2.8867513459481,5.));
#516=CARTESIAN_POINT('Ctrl Pts',(-4.49274057836311,-2.8867513459481,5.));
#517=CARTESIAN_POINT('Ctrl Pts',(-4.7,-1.33974596215561,5.));
#518=CARTESIAN_POINT('Ctrl Pts',(-4.7,0.,5.));
#519=CARTESIAN_POINT('Origin',(-4.579422863406,0.,0.));
#520=CARTESIAN_POINT('Origin',(-4.7,0.,0.));
#521=CARTESIAN_POINT('Origin',(-4.579422863406,0.,0.));
#522=CARTESIAN_POINT('Origin',(-4.7,0.,0.));
#523=CARTESIAN_POINT('Origin',(-4.579422863406,0.,0.));
#524=CARTESIAN_POINT('Origin',(-4.7,0.,0.));
#525=CARTESIAN_POINT('Origin',(-4.579422863406,0.,0.));
#526=CARTESIAN_POINT('Origin',(-4.7,0.,0.));
#527=CARTESIAN_POINT('Origin',(-4.579422863406,0.,0.));
#528=CARTESIAN_POINT('Origin',(-4.7,0.,0.));
#529=CARTESIAN_POINT('Origin',(-4.579422863406,0.,0.));
#530=CARTESIAN_POINT('Origin',(-4.7,0.,0.));
#531=CARTESIAN_POINT('Origin',(0.250000000000063,0.,0.));
#532=CARTESIAN_POINT('',(0.25,3.15,0.));
#533=CARTESIAN_POINT('Origin',(0.250000000000063,0.,0.));
#534=CARTESIAN_POINT('Origin',(-4.7,3.,0.));
#535=CARTESIAN_POINT('',(-4.7,4.5454545454545,0.));
#536=CARTESIAN_POINT('Origin',(-4.7,0.,0.));
#537=CARTESIAN_POINT('Origin',(-4.4388888888889,0.,0.));
#538=CARTESIAN_POINT('',(-4.1777777777778,4.5454545454545,0.));
#539=CARTESIAN_POINT('Origin',(-4.1777777777778,0.,0.));
#540=CARTESIAN_POINT('Origin',(-4.1777777777778,2.27272727272725,0.));
#541=CARTESIAN_POINT('Origin',(7.,0.,0.));
#542=CARTESIAN_POINT('',(14.,3.15,0.));
#543=CARTESIAN_POINT('Origin',(14.,0.,0.));
#544=CARTESIAN_POINT('Origin',(17.,0.,0.));
#545=UNCERTAINTY_MEASURE_WITH_UNIT(LENGTH_MEASURE(0.01),#549,
'DISTANCE_ACCURACY_VALUE',
'Maximum model space distance between geometric entities at asserted c
onnectivities');
#546=UNCERTAINTY_MEASURE_WITH_UNIT(LENGTH_MEASURE(1.E-6),#549,
'DISTANCE_ACCURACY_VALUE',
'Maximum model space distance between geometric entities at asserted c
onnectivities');
#547=(
GEOMETRIC_REPRESENTATION_CONTEXT(3)
GLOBAL_UNCERTAINTY_ASSIGNED_CONTEXT((#545))
GLOBAL_UNIT_ASSIGNED_CONTEXT((#549,#552,#550))
REPRESENTATION_CONTEXT('','3D')
);
#548=(
GEOMETRIC_REPRESENTATION_CONTEXT(3)
GLOBAL_UNCERTAINTY_ASSIGNED_CONTEXT((#546))
GLOBAL_UNIT_ASSIGNED_CONTEXT((#549,#552,#550))
REPRESENTATION_CONTEXT('','3D')
);
#549=(
LENGTH_UNIT()
NAMED_UNIT(*)
SI_UNIT(.MILLI.,.METRE.)
);
#550=(
NAMED_UNIT(*)
SI_UNIT($,.STERADIAN.)
SOLID_ANGLE_UNIT()
);
#551=DIMENSIONAL_EXPONENTS(0.,0.,0.,0.,0.,0.,0.);
#552=(
CONVERSION_BASED_UNIT('degree',#554)
NAMED_UNIT(#551)
PLANE_ANGLE_UNIT()
);
#553=(
NAMED_UNIT(*)
PLANE_ANGLE_UNIT()
SI_UNIT($,.RADIAN.)
);
#554=PLANE_ANGLE_MEASURE_WITH_UNIT(PLANE_ANGLE_MEASURE(0.01745329252),#553);
#555=SHAPE_DEFINITION_REPRESENTATION(#556,#557);
#556=PRODUCT_DEFINITION_SHAPE('',$,#559);
#557=SHAPE_REPRESENTATION('',(#311),#547);
#558=PRODUCT_DEFINITION_CONTEXT('part definition',#563,'design');
#559=PRODUCT_DEFINITION(
'17650_KriTec_Kombi_Blechschraube_Stahl_verzinkt_Sechskantkopf_6,3x20_
DIN7976',
'17650_KriTec_Kombi_Blechschraube_Stahl_verzinkt_Sechskantkopf_6,3x20_
DIN7976',#560,#558);
#560=PRODUCT_DEFINITION_FORMATION('',$,#565);
#561=PRODUCT_RELATED_PRODUCT_CATEGORY(
'17650_KriTec_Kombi_Blechschraube_Stahl_verzinkt_Sechskantkopf_6,3x20_
DIN7976',
'17650_KriTec_Kombi_Blechschraube_Stahl_verzinkt_Sechskantkopf_6,3x20_
DIN7976',(#565));
#562=APPLICATION_PROTOCOL_DEFINITION('international standard',
'automotive_design',2009,#563);
#563=APPLICATION_CONTEXT(
'Core Data for Automotive Mechanical Design Process');
#564=PRODUCT_CONTEXT('part definition',#563,'mechanical');
#565=PRODUCT(
'17650_KriTec_Kombi_Blechschraube_Stahl_verzinkt_Sechskantkopf_6,3x20_
DIN7976',
'17650_KriTec_Kombi_Blechschraube_Stahl_verzinkt_Sechskantkopf_6,3x20_
DIN7976',$,(#564));
#566=PRESENTATION_STYLE_ASSIGNMENT((#568));
#567=PRESENTATION_STYLE_ASSIGNMENT((#569));
#568=SURFACE_STYLE_USAGE(.BOTH.,#570);
#569=SURFACE_STYLE_USAGE(.BOTH.,#571);
#570=SURFACE_SIDE_STYLE('',(#572));
#571=SURFACE_SIDE_STYLE('',(#573));
#572=SURFACE_STYLE_FILL_AREA(#574);
#573=SURFACE_STYLE_FILL_AREA(#575);
#574=FILL_AREA_STYLE('',(#576));
#575=FILL_AREA_STYLE('',(#577));
#576=FILL_AREA_STYLE_COLOUR('',#578);
#577=FILL_AREA_STYLE_COLOUR('',#579);
#578=COLOUR_RGB('',0.745098039215686,0.737254901960784,0.729411764705882);
#579=COLOUR_RGB('',0.745098039215686,0.737254901960784,0.729411764705882);
ENDSEC;
END-ISO-10303-21;
