ISO-10303-21;
HEADER;
/* Generated by software containing ST-Developer
 * from STEP Tools, Inc. (www.steptools.com) 
 */

FILE_DESCRIPTION(
/* description */ (''),
/* implementation_level */ '2;1');

FILE_NAME(
/* name */ 
'S:\\Bilder_neu\\17055_KriTec_Sicherheitsschraube_M6x20_VA_aehnlich_DI
N_7991\\Inventordateien\\17055_KriTec_Sicherheitsschraube_M6x20_VA_aeh
nlich_DIN_7991.stp',
/* time_stamp */ '2014-05-05T15:29:38+02:00',
/* author */ ('kostic'),
/* organization */ (''),
/* preprocessor_version */ 'ST-DEVELOPER v15.2',
/* originating_system */ 'Autodesk Inventor 2014',
/* authorisation */ '');

FILE_SCHEMA (('AUTOMOTIVE_DESIGN { 1 0 10303 214 3 1 1 }'));
ENDSEC;

DATA;
#10=SHAPE_REPRESENTATION_RELATIONSHIP('SRR','None',#383,#11);
#11=ADVANCED_BREP_SHAPE_REPRESENTATION($,(#219),#374);
#12=STYLED_ITEM($,(#391),#219);
#13=LINE($,#324,#25);
#14=LINE($,#326,#26);
#15=LINE($,#327,#27);
#16=LINE($,#334,#28);
#17=LINE($,#335,#29);
#18=LINE($,#342,#30);
#19=LINE($,#343,#31);
#20=LINE($,#350,#32);
#21=LINE($,#351,#33);
#22=LINE($,#358,#34);
#23=LINE($,#359,#35);
#24=LINE($,#364,#36);
#25=VECTOR($,#267,2.5);
#26=VECTOR($,#268,2.3094010767585);
#27=VECTOR($,#269,2.5);
#28=VECTOR($,#272,2.5);
#29=VECTOR($,#273,2.3094010767585);
#30=VECTOR($,#276,2.5);
#31=VECTOR($,#277,2.3094010767585);
#32=VECTOR($,#280,2.5);
#33=VECTOR($,#281,2.3094010767585);
#34=VECTOR($,#284,2.3094010767585);
#35=VECTOR($,#285,2.5);
#36=VECTOR($,#288,2.3094010767585);
#37=(
BOUNDED_CURVE()
B_SPLINE_CURVE(2,(#320,#321,#322),.UNSPECIFIED.,.F.,.F.)
B_SPLINE_CURVE_WITH_KNOTS((3,3),(0.,0.233687227615585),.UNSPECIFIED.)
CURVE()
GEOMETRIC_REPRESENTATION_ITEM()
RATIONAL_B_SPLINE_CURVE((1.,1.15470053837925,1.))
REPRESENTATION_ITEM($)
);
#38=(
BOUNDED_CURVE()
B_SPLINE_CURVE(2,(#330,#331,#332),.UNSPECIFIED.,.F.,.F.)
B_SPLINE_CURVE_WITH_KNOTS((3,3),(0.,0.233687227615585),.UNSPECIFIED.)
CURVE()
GEOMETRIC_REPRESENTATION_ITEM()
RATIONAL_B_SPLINE_CURVE((1.,1.15470053837925,1.))
REPRESENTATION_ITEM($)
);
#39=(
BOUNDED_CURVE()
B_SPLINE_CURVE(2,(#338,#339,#340),.UNSPECIFIED.,.F.,.F.)
B_SPLINE_CURVE_WITH_KNOTS((3,3),(0.,0.233687227615585),.UNSPECIFIED.)
CURVE()
GEOMETRIC_REPRESENTATION_ITEM()
RATIONAL_B_SPLINE_CURVE((1.,1.15470053837925,1.))
REPRESENTATION_ITEM($)
);
#40=(
BOUNDED_CURVE()
B_SPLINE_CURVE(2,(#346,#347,#348),.UNSPECIFIED.,.F.,.F.)
B_SPLINE_CURVE_WITH_KNOTS((3,3),(0.,0.233687227615585),.UNSPECIFIED.)
CURVE()
GEOMETRIC_REPRESENTATION_ITEM()
RATIONAL_B_SPLINE_CURVE((1.,1.15470053837925,1.))
REPRESENTATION_ITEM($)
);
#41=(
BOUNDED_CURVE()
B_SPLINE_CURVE(2,(#354,#355,#356),.UNSPECIFIED.,.F.,.F.)
B_SPLINE_CURVE_WITH_KNOTS((3,3),(0.,0.233687227615585),.UNSPECIFIED.)
CURVE()
GEOMETRIC_REPRESENTATION_ITEM()
RATIONAL_B_SPLINE_CURVE((1.,1.15470053837925,1.))
REPRESENTATION_ITEM($)
);
#42=(
BOUNDED_CURVE()
B_SPLINE_CURVE(2,(#361,#362,#363),.UNSPECIFIED.,.F.,.F.)
B_SPLINE_CURVE_WITH_KNOTS((3,3),(0.,0.233687227615585),.UNSPECIFIED.)
CURVE()
GEOMETRIC_REPRESENTATION_ITEM()
RATIONAL_B_SPLINE_CURVE((1.,1.15470053837925,1.))
REPRESENTATION_ITEM($)
);
#43=CONICAL_SURFACE($,#227,2.69327499999999,45.);
#44=CONICAL_SURFACE($,#237,1.15470053837925,60.);
#45=CONICAL_SURFACE($,#242,4.50000000000001,44.9999999999999);
#46=PLANE($,#224);
#47=PLANE($,#225);
#48=PLANE($,#231);
#49=PLANE($,#232);
#50=PLANE($,#233);
#51=PLANE($,#234);
#52=PLANE($,#235);
#53=PLANE($,#236);
#54=PLANE($,#238);
#55=FACE_BOUND($,#78,.T.);
#56=FACE_BOUND($,#82,.T.);
#57=FACE_BOUND($,#84,.T.);
#58=FACE_BOUND($,#92,.T.);
#59=FACE_BOUND($,#94,.T.);
#60=FACE_BOUND($,#96,.T.);
#61=FACE_BOUND($,#98,.T.);
#62=FACE_OUTER_BOUND($,#77,.T.);
#63=FACE_OUTER_BOUND($,#79,.T.);
#64=FACE_OUTER_BOUND($,#80,.T.);
#65=FACE_OUTER_BOUND($,#81,.T.);
#66=FACE_OUTER_BOUND($,#83,.T.);
#67=FACE_OUTER_BOUND($,#85,.T.);
#68=FACE_OUTER_BOUND($,#86,.T.);
#69=FACE_OUTER_BOUND($,#87,.T.);
#70=FACE_OUTER_BOUND($,#88,.T.);
#71=FACE_OUTER_BOUND($,#89,.T.);
#72=FACE_OUTER_BOUND($,#90,.T.);
#73=FACE_OUTER_BOUND($,#91,.T.);
#74=FACE_OUTER_BOUND($,#93,.T.);
#75=FACE_OUTER_BOUND($,#95,.T.);
#76=FACE_OUTER_BOUND($,#97,.T.);
#77=EDGE_LOOP($,(#150));
#78=EDGE_LOOP($,(#151));
#79=EDGE_LOOP($,(#152));
#80=EDGE_LOOP($,(#153));
#81=EDGE_LOOP($,(#154));
#82=EDGE_LOOP($,(#155));
#83=EDGE_LOOP($,(#156));
#84=EDGE_LOOP($,(#157));
#85=EDGE_LOOP($,(#158,#159,#160,#161));
#86=EDGE_LOOP($,(#162,#163,#164,#165));
#87=EDGE_LOOP($,(#166,#167,#168,#169));
#88=EDGE_LOOP($,(#170,#171,#172,#173));
#89=EDGE_LOOP($,(#174,#175,#176,#177));
#90=EDGE_LOOP($,(#178,#179,#180,#181));
#91=EDGE_LOOP($,(#182));
#92=EDGE_LOOP($,(#183,#184,#185,#186,#187,#188));
#93=EDGE_LOOP($,(#189));
#94=EDGE_LOOP($,(#190,#191,#192,#193,#194,#195));
#95=EDGE_LOOP($,(#196));
#96=EDGE_LOOP($,(#197));
#97=EDGE_LOOP($,(#198));
#98=EDGE_LOOP($,(#199));
#99=CIRCLE($,#222,0.625);
#100=CIRCLE($,#223,0.625);
#101=CIRCLE($,#226,2.38654999999999);
#102=CIRCLE($,#228,2.99999999999999);
#103=CIRCLE($,#230,3.);
#104=CIRCLE($,#239,6.00000000000001);
#105=CIRCLE($,#241,6.00000000000001);
#106=VERTEX_POINT($,#303);
#107=VERTEX_POINT($,#305);
#108=VERTEX_POINT($,#309);
#109=VERTEX_POINT($,#312);
#110=VERTEX_POINT($,#315);
#111=VERTEX_POINT($,#318);
#112=VERTEX_POINT($,#319);
#113=VERTEX_POINT($,#323);
#114=VERTEX_POINT($,#325);
#115=VERTEX_POINT($,#329);
#116=VERTEX_POINT($,#333);
#117=VERTEX_POINT($,#337);
#118=VERTEX_POINT($,#341);
#119=VERTEX_POINT($,#345);
#120=VERTEX_POINT($,#349);
#121=VERTEX_POINT($,#353);
#122=VERTEX_POINT($,#357);
#123=VERTEX_POINT($,#367);
#124=VERTEX_POINT($,#370);
#125=EDGE_CURVE($,#106,#106,#99,.T.);
#126=EDGE_CURVE($,#107,#107,#100,.T.);
#127=EDGE_CURVE($,#108,#108,#101,.T.);
#128=EDGE_CURVE($,#109,#109,#102,.T.);
#129=EDGE_CURVE($,#110,#110,#103,.T.);
#130=EDGE_CURVE($,#111,#112,#37,.T.);
#131=EDGE_CURVE($,#111,#113,#13,.T.);
#132=EDGE_CURVE($,#114,#113,#14,.T.);
#133=EDGE_CURVE($,#112,#114,#15,.T.);
#134=EDGE_CURVE($,#115,#111,#38,.T.);
#135=EDGE_CURVE($,#115,#116,#16,.T.);
#136=EDGE_CURVE($,#113,#116,#17,.T.);
#137=EDGE_CURVE($,#117,#115,#39,.T.);
#138=EDGE_CURVE($,#117,#118,#18,.T.);
#139=EDGE_CURVE($,#116,#118,#19,.T.);
#140=EDGE_CURVE($,#119,#117,#40,.T.);
#141=EDGE_CURVE($,#120,#119,#20,.T.);
#142=EDGE_CURVE($,#118,#120,#21,.T.);
#143=EDGE_CURVE($,#112,#121,#41,.T.);
#144=EDGE_CURVE($,#122,#114,#22,.T.);
#145=EDGE_CURVE($,#121,#122,#23,.T.);
#146=EDGE_CURVE($,#121,#119,#42,.T.);
#147=EDGE_CURVE($,#120,#122,#24,.T.);
#148=EDGE_CURVE($,#123,#123,#104,.T.);
#149=EDGE_CURVE($,#124,#124,#105,.T.);
#150=ORIENTED_EDGE($,*,*,#125,.T.);
#151=ORIENTED_EDGE($,*,*,#126,.F.);
#152=ORIENTED_EDGE($,*,*,#125,.F.);
#153=ORIENTED_EDGE($,*,*,#127,.F.);
#154=ORIENTED_EDGE($,*,*,#128,.T.);
#155=ORIENTED_EDGE($,*,*,#127,.T.);
#156=ORIENTED_EDGE($,*,*,#129,.T.);
#157=ORIENTED_EDGE($,*,*,#128,.F.);
#158=ORIENTED_EDGE($,*,*,#130,.F.);
#159=ORIENTED_EDGE($,*,*,#131,.T.);
#160=ORIENTED_EDGE($,*,*,#132,.F.);
#161=ORIENTED_EDGE($,*,*,#133,.F.);
#162=ORIENTED_EDGE($,*,*,#134,.F.);
#163=ORIENTED_EDGE($,*,*,#135,.T.);
#164=ORIENTED_EDGE($,*,*,#136,.F.);
#165=ORIENTED_EDGE($,*,*,#131,.F.);
#166=ORIENTED_EDGE($,*,*,#137,.F.);
#167=ORIENTED_EDGE($,*,*,#138,.T.);
#168=ORIENTED_EDGE($,*,*,#139,.F.);
#169=ORIENTED_EDGE($,*,*,#135,.F.);
#170=ORIENTED_EDGE($,*,*,#140,.F.);
#171=ORIENTED_EDGE($,*,*,#141,.F.);
#172=ORIENTED_EDGE($,*,*,#142,.F.);
#173=ORIENTED_EDGE($,*,*,#138,.F.);
#174=ORIENTED_EDGE($,*,*,#143,.F.);
#175=ORIENTED_EDGE($,*,*,#133,.T.);
#176=ORIENTED_EDGE($,*,*,#144,.F.);
#177=ORIENTED_EDGE($,*,*,#145,.F.);
#178=ORIENTED_EDGE($,*,*,#146,.F.);
#179=ORIENTED_EDGE($,*,*,#145,.T.);
#180=ORIENTED_EDGE($,*,*,#147,.F.);
#181=ORIENTED_EDGE($,*,*,#141,.T.);
#182=ORIENTED_EDGE($,*,*,#126,.T.);
#183=ORIENTED_EDGE($,*,*,#140,.T.);
#184=ORIENTED_EDGE($,*,*,#137,.T.);
#185=ORIENTED_EDGE($,*,*,#134,.T.);
#186=ORIENTED_EDGE($,*,*,#130,.T.);
#187=ORIENTED_EDGE($,*,*,#143,.T.);
#188=ORIENTED_EDGE($,*,*,#146,.T.);
#189=ORIENTED_EDGE($,*,*,#148,.F.);
#190=ORIENTED_EDGE($,*,*,#142,.T.);
#191=ORIENTED_EDGE($,*,*,#147,.T.);
#192=ORIENTED_EDGE($,*,*,#144,.T.);
#193=ORIENTED_EDGE($,*,*,#132,.T.);
#194=ORIENTED_EDGE($,*,*,#136,.T.);
#195=ORIENTED_EDGE($,*,*,#139,.T.);
#196=ORIENTED_EDGE($,*,*,#149,.F.);
#197=ORIENTED_EDGE($,*,*,#148,.T.);
#198=ORIENTED_EDGE($,*,*,#129,.F.);
#199=ORIENTED_EDGE($,*,*,#149,.T.);
#200=CYLINDRICAL_SURFACE($,#221,0.625);
#201=CYLINDRICAL_SURFACE($,#229,2.99999999999999);
#202=CYLINDRICAL_SURFACE($,#240,6.00000000000001);
#203=ADVANCED_FACE($,(#62,#55),#200,.T.);
#204=ADVANCED_FACE($,(#63),#46,.T.);
#205=ADVANCED_FACE($,(#64),#47,.T.);
#206=ADVANCED_FACE($,(#65,#56),#43,.T.);
#207=ADVANCED_FACE($,(#66,#57),#201,.T.);
#208=ADVANCED_FACE($,(#67),#48,.F.);
#209=ADVANCED_FACE($,(#68),#49,.F.);
#210=ADVANCED_FACE($,(#69),#50,.F.);
#211=ADVANCED_FACE($,(#70),#51,.F.);
#212=ADVANCED_FACE($,(#71),#52,.F.);
#213=ADVANCED_FACE($,(#72),#53,.F.);
#214=ADVANCED_FACE($,(#73,#58),#44,.F.);
#215=ADVANCED_FACE($,(#74,#59),#54,.T.);
#216=ADVANCED_FACE($,(#75,#60),#202,.T.);
#217=ADVANCED_FACE($,(#76,#61),#45,.T.);
#218=CLOSED_SHELL($,(#203,#204,#205,#206,#207,#208,#209,#210,#211,#212,
#213,#214,#215,#216,#217));
#219=MANIFOLD_SOLID_BREP('Volumenk\X\F6rper1',#218);
#220=AXIS2_PLACEMENT_3D('placement',#301,#243,#244);
#221=AXIS2_PLACEMENT_3D($,#302,#245,#246);
#222=AXIS2_PLACEMENT_3D($,#304,#247,#248);
#223=AXIS2_PLACEMENT_3D($,#306,#249,#250);
#224=AXIS2_PLACEMENT_3D($,#307,#251,#252);
#225=AXIS2_PLACEMENT_3D($,#308,#253,#254);
#226=AXIS2_PLACEMENT_3D($,#310,#255,#256);
#227=AXIS2_PLACEMENT_3D($,#311,#257,#258);
#228=AXIS2_PLACEMENT_3D($,#313,#259,#260);
#229=AXIS2_PLACEMENT_3D($,#314,#261,#262);
#230=AXIS2_PLACEMENT_3D($,#316,#263,#264);
#231=AXIS2_PLACEMENT_3D($,#317,#265,#266);
#232=AXIS2_PLACEMENT_3D($,#328,#270,#271);
#233=AXIS2_PLACEMENT_3D($,#336,#274,#275);
#234=AXIS2_PLACEMENT_3D($,#344,#278,#279);
#235=AXIS2_PLACEMENT_3D($,#352,#282,#283);
#236=AXIS2_PLACEMENT_3D($,#360,#286,#287);
#237=AXIS2_PLACEMENT_3D($,#365,#289,#290);
#238=AXIS2_PLACEMENT_3D($,#366,#291,#292);
#239=AXIS2_PLACEMENT_3D($,#368,#293,#294);
#240=AXIS2_PLACEMENT_3D($,#369,#295,#296);
#241=AXIS2_PLACEMENT_3D($,#371,#297,#298);
#242=AXIS2_PLACEMENT_3D($,#372,#299,#300);
#243=DIRECTION('axis',(0.,0.,1.));
#244=DIRECTION('refdir',(1.,0.,0.));
#245=DIRECTION('center_axis',(1.,-4.31408307542741E-032,0.));
#246=DIRECTION('ref_axis',(0.,0.,-1.));
#247=DIRECTION('center_axis',(1.,-4.26960799217558E-032,0.));
#248=DIRECTION('ref_axis',(0.,0.,-1.));
#249=DIRECTION('center_axis',(1.,-4.31408307542741E-032,0.));
#250=DIRECTION('ref_axis',(0.,0.,-1.));
#251=DIRECTION('center_axis',(-1.,4.26960799217558E-032,0.));
#252=DIRECTION('ref_axis',(0.,0.,1.));
#253=DIRECTION('center_axis',(1.,-4.26960799217558E-032,0.));
#254=DIRECTION('ref_axis',(0.,0.,-1.));
#255=DIRECTION('center_axis',(-1.,4.26960799217558E-032,0.));
#256=DIRECTION('ref_axis',(-4.26960799217558E-032,-1.,0.));
#257=DIRECTION('center_axis',(-1.,4.26960799217557E-032,0.));
#258=DIRECTION('ref_axis',(-1.89168075182197E-032,-1.,0.));
#259=DIRECTION('center_axis',(1.,-4.26960799217558E-032,0.));
#260=DIRECTION('ref_axis',(0.,-1.,0.));
#261=DIRECTION('center_axis',(1.,-4.26960799217558E-032,0.));
#262=DIRECTION('ref_axis',(0.,1.,0.));
#263=DIRECTION('center_axis',(1.,-4.26960799217558E-032,0.));
#264=DIRECTION('ref_axis',(0.,1.,0.));
#265=DIRECTION('center_axis',(-4.26960799217558E-032,-1.,2.40370335797945E-016));
#266=DIRECTION('ref_axis',(0.,-2.22044604925031E-016,-1.));
#267=DIRECTION($,(-1.,4.26960799217558E-032,0.));
#268=DIRECTION($,(-4.78904894177953E-048,-2.40370335797945E-016,-1.));
#269=DIRECTION($,(-1.,4.26960799217558E-032,0.));
#270=DIRECTION('center_axis',(-2.13480399608779E-032,-0.5,-0.866025403784439));
#271=DIRECTION('ref_axis',(-1.,0.,0.));
#272=DIRECTION($,(-1.,4.26960799217558E-032,0.));
#273=DIRECTION($,(3.69758898542512E-032,0.866025403784439,-0.5));
#274=DIRECTION('center_axis',(2.13480399608779E-032,0.5,-0.866025403784439));
#275=DIRECTION('ref_axis',(-1.,0.,0.));
#276=DIRECTION($,(-1.,4.26960799217558E-032,0.));
#277=DIRECTION($,(3.69758898542512E-032,0.866025403784439,0.5));
#278=DIRECTION('center_axis',(4.26960799217558E-032,1.,-6.00925839494864E-016));
#279=DIRECTION('ref_axis',(0.,6.21724893790088E-016,1.));
#280=DIRECTION($,(1.,-4.26960799217558E-032,0.));
#281=DIRECTION($,(2.01833555438521E-047,6.00925839494864E-016,1.));
#282=DIRECTION('center_axis',(-2.13480399608779E-032,-0.5,0.866025403784439));
#283=DIRECTION('ref_axis',(1.,0.,0.));
#284=DIRECTION($,(-3.69758898542512E-032,-0.866025403784439,-0.5));
#285=DIRECTION($,(-1.,4.26960799217558E-032,0.));
#286=DIRECTION('center_axis',(2.13480399608779E-032,0.500000000000001,0.866025403784438));
#287=DIRECTION('ref_axis',(1.,0.,0.));
#288=DIRECTION($,(-3.69758898542512E-032,-0.866025403784438,0.500000000000001));
#289=DIRECTION('center_axis',(-1.,4.26960799217558E-032,0.));
#290=DIRECTION('ref_axis',(0.,1.,0.));
#291=DIRECTION('center_axis',(-1.,4.26960799217558E-032,0.));
#292=DIRECTION('ref_axis',(0.,0.,1.));
#293=DIRECTION('center_axis',(1.,-4.26960799217558E-032,0.));
#294=DIRECTION('ref_axis',(0.,1.,0.));
#295=DIRECTION('center_axis',(1.,-4.26960799217558E-032,0.));
#296=DIRECTION('ref_axis',(0.,1.,0.));
#297=DIRECTION('center_axis',(1.,-4.26960799217558E-032,0.));
#298=DIRECTION('ref_axis',(0.,1.,0.));
#299=DIRECTION('center_axis',(-1.,4.26960799217558E-032,0.));
#300=DIRECTION('ref_axis',(0.,1.,0.));
#301=CARTESIAN_POINT('',(0.,0.,0.));
#302=CARTESIAN_POINT('Origin',(-1.77389426237602E-031,-2.86229373536173E-016,
1.12757025938492E-016));
#303=CARTESIAN_POINT('',(-1.77389426237602E-031,-2.09688948589463E-016,
0.625));
#304=CARTESIAN_POINT('Origin',(-1.77389426237602E-031,-2.86229373536173E-016,
1.12757025938492E-016));
#305=CARTESIAN_POINT('',(3.47248941508982,-3.62769798482883E-016,0.625));
#306=CARTESIAN_POINT('Origin',(3.47248941508982,-2.86229373536173E-016,
1.12757025938492E-016));
#307=CARTESIAN_POINT('Origin',(-1.77389426237602E-031,-2.67436535879758E-016,
9.65281981418893E-017));
#308=CARTESIAN_POINT('Origin',(20.,1.5,0.));
#309=CARTESIAN_POINT('',(20.,2.38654999999999,-2.92258429371479E-016));
#310=CARTESIAN_POINT('Origin',(20.,-6.90253292068385E-031,0.));
#311=CARTESIAN_POINT('Origin',(19.693275,-6.77157336954384E-031,0.));
#312=CARTESIAN_POINT('',(19.38655,2.99999999999999,3.67381906146712E-016));
#313=CARTESIAN_POINT('Origin',(19.38655,-6.64061381840384E-031,0.));
#314=CARTESIAN_POINT('Origin',(13.15,-3.97785144604358E-031,0.));
#315=CARTESIAN_POINT('',(3.29999999999999,3.,0.));
#316=CARTESIAN_POINT('Origin',(3.29999999999999,2.2771242624937E-032,0.));
#317=CARTESIAN_POINT('Origin',(-2.62781586081114E-031,-2.,-1.15470053837925));
#318=CARTESIAN_POINT('',(2.5,-2.,-1.15470053837925));
#319=CARTESIAN_POINT('',(2.5,-2.,1.15470053837925));
#320=CARTESIAN_POINT('Ctrl Pts',(2.5,-2.,-1.15470053837926));
#321=CARTESIAN_POINT('Ctrl Pts',(2.83333333333334,-2.,4.16333634234434E-016));
#322=CARTESIAN_POINT('Ctrl Pts',(2.5,-2.,1.15470053837926));
#323=CARTESIAN_POINT('',(-2.62781586081114E-031,-2.,-1.15470053837925));
#324=CARTESIAN_POINT($,(1.25,-2.,-1.15470053837925));
#325=CARTESIAN_POINT('',(-2.62781586081114E-031,-2.,1.15470053837925));
#326=CARTESIAN_POINT($,(-2.62781586081114E-031,-2.,-0.522104338030173));
#327=CARTESIAN_POINT($,(1.25,-2.,1.15470053837925));
#328=CARTESIAN_POINT('Origin',(-1.77389426237602E-031,-2.8281072321227E-016,
-2.3094010767585));
#329=CARTESIAN_POINT('',(2.5,-4.94307940465133E-048,-2.3094010767585));
#330=CARTESIAN_POINT('Ctrl Pts',(2.5,4.71844785465692E-015,-2.30940107675851));
#331=CARTESIAN_POINT('Ctrl Pts',(2.83333333333334,-1.,-1.73205080756888));
#332=CARTESIAN_POINT('Ctrl Pts',(2.5,-2.,-1.15470053837925));
#333=CARTESIAN_POINT('',(-1.77389426237602E-031,-2.8281072321227E-016,-2.3094010767585));
#334=CARTESIAN_POINT($,(1.25,-5.55111512312578E-016,-2.3094010767585));
#335=CARTESIAN_POINT($,(-1.97989761412102E-031,-0.482487741550317,-2.03083664929373));
#336=CARTESIAN_POINT('Origin',(-9.19972663940909E-032,2.,-1.15470053837925));
#337=CARTESIAN_POINT('',(2.5,2.,-1.15470053837925));
#338=CARTESIAN_POINT('Ctrl Pts',(2.5,2.,-1.15470053837925));
#339=CARTESIAN_POINT('Ctrl Pts',(2.83333333333334,1.,-1.73205080756888));
#340=CARTESIAN_POINT('Ctrl Pts',(2.5,-4.85722573273506E-015,-2.30940107675851));
#341=CARTESIAN_POINT('',(-9.19972663940909E-032,2.,-1.15470053837925));
#342=CARTESIAN_POINT($,(1.25,2.,-1.15470053837925));
#343=CARTESIAN_POINT($,(-1.10554834103143E-031,1.56535663828949,-1.4056420002643));
#344=CARTESIAN_POINT('Origin',(-9.19972663940909E-032,2.,1.15470053837925));
#345=CARTESIAN_POINT('',(2.5,2.,1.15470053837925));
#346=CARTESIAN_POINT('Ctrl Pts',(2.5,2.,1.15470053837926));
#347=CARTESIAN_POINT('Ctrl Pts',(2.83333333333334,2.,-1.11022302462516E-015));
#348=CARTESIAN_POINT('Ctrl Pts',(2.5,2.,-1.15470053837926));
#349=CARTESIAN_POINT('',(-9.19972663940909E-032,2.,1.15470053837925));
#350=CARTESIAN_POINT($,(1.25,2.,1.15470053837925));
#351=CARTESIAN_POINT($,(-9.19972663940909E-032,2.,0.632596200349076));
#352=CARTESIAN_POINT('Origin',(-2.62781586081114E-031,-2.,1.15470053837925));
#353=CARTESIAN_POINT('',(2.5,-1.38777878078145E-016,2.3094010767585));
#354=CARTESIAN_POINT('Ctrl Pts',(2.5,-2.,1.15470053837925));
#355=CARTESIAN_POINT('Ctrl Pts',(2.83333333333334,-0.999999999999999,1.73205080756888));
#356=CARTESIAN_POINT('Ctrl Pts',(2.5,4.0245584642662E-015,2.30940107675851));
#357=CARTESIAN_POINT('',(-1.77389426237602E-031,0.,2.3094010767585));
#358=CARTESIAN_POINT($,(-2.3864307386841E-031,-1.4346433617105,1.48110934568383));
#359=CARTESIAN_POINT($,(1.25,4.16333634234434E-016,2.3094010767585));
#360=CARTESIAN_POINT('Origin',(-1.77389426237602E-031,0.,2.3094010767585));
#361=CARTESIAN_POINT('Ctrl Pts',(2.5,-3.19189119579733E-015,2.30940107675851));
#362=CARTESIAN_POINT('Ctrl Pts',(2.83333333333334,1.,1.73205080756888));
#363=CARTESIAN_POINT('Ctrl Pts',(2.5,2.00000000000001,1.15470053837925));
#364=CARTESIAN_POINT($,(-1.55293681490346E-031,0.517512258449684,2.01061523503365));
#365=CARTESIAN_POINT('Origin',(3.16666666666667,2.84640532811706E-032,0.));
#366=CARTESIAN_POINT('Origin',(0.,4.15470053837926,0.));
#367=CARTESIAN_POINT('',(0.,6.00000000000001,0.));
#368=CARTESIAN_POINT('Origin',(0.,1.63668306366731E-031,0.));
#369=CARTESIAN_POINT('Origin',(0.149999999999986,1.57263894378468E-031,
0.));
#370=CARTESIAN_POINT('',(0.299999999999971,6.00000000000001,0.));
#371=CARTESIAN_POINT('Origin',(0.299999999999971,1.50859482390205E-031,
0.));
#372=CARTESIAN_POINT('Origin',(1.79999999999998,8.6815362507571E-032,0.));
#373=UNCERTAINTY_MEASURE_WITH_UNIT(LENGTH_MEASURE(0.01),#375,
'DISTANCE_ACCURACY_VALUE',
'Maximum model space distance between geometric entities at asserted c
onnectivities');
#374=(
GEOMETRIC_REPRESENTATION_CONTEXT(3)
GLOBAL_UNCERTAINTY_ASSIGNED_CONTEXT((#373))
GLOBAL_UNIT_ASSIGNED_CONTEXT((#375,#378,#376))
REPRESENTATION_CONTEXT('','3D')
);
#375=(
LENGTH_UNIT()
NAMED_UNIT(*)
SI_UNIT(.MILLI.,.METRE.)
);
#376=(
NAMED_UNIT(*)
SI_UNIT($,.STERADIAN.)
SOLID_ANGLE_UNIT()
);
#377=DIMENSIONAL_EXPONENTS(0.,0.,0.,0.,0.,0.,0.);
#378=(
CONVERSION_BASED_UNIT('degree',#380)
NAMED_UNIT(#377)
PLANE_ANGLE_UNIT()
);
#379=(
NAMED_UNIT(*)
PLANE_ANGLE_UNIT()
SI_UNIT($,.RADIAN.)
);
#380=PLANE_ANGLE_MEASURE_WITH_UNIT(PLANE_ANGLE_MEASURE(0.01745329252),#379);
#381=SHAPE_DEFINITION_REPRESENTATION(#382,#383);
#382=PRODUCT_DEFINITION_SHAPE('',$,#385);
#383=SHAPE_REPRESENTATION('',(#220),#374);
#384=PRODUCT_DEFINITION_CONTEXT('3D Mechanical Parts',#388,'design');
#385=PRODUCT_DEFINITION(
'17055_KriTec_Sicherheitsschraube_M6x20_VA_aehnlich_DIN_7991',
'17055_KriTec_Sicherheitsschraube_M6x20_VA_aehnlich_DIN_7991',#386,#384);
#386=PRODUCT_DEFINITION_FORMATION('',$,#390);
#387=APPLICATION_PROTOCOL_DEFINITION('international standard',
'automotive_design',2009,#388);
#388=APPLICATION_CONTEXT(
'Core Data for Automotive Mechanical Design Process');
#389=PRODUCT_CONTEXT('3D Mechanical Parts',#388,'mechanical');
#390=PRODUCT(
'17055_KriTec_Sicherheitsschraube_M6x20_VA_aehnlich_DIN_7991',
'17055_KriTec_Sicherheitsschraube_M6x20_VA_aehnlich_DIN_7991',$,(#389));
#391=PRESENTATION_STYLE_ASSIGNMENT((#392));
#392=SURFACE_STYLE_USAGE(.BOTH.,#393);
#393=SURFACE_SIDE_STYLE($,(#394));
#394=SURFACE_STYLE_FILL_AREA(#395);
#395=FILL_AREA_STYLE($,(#396));
#396=FILL_AREA_STYLE_COLOUR($,#397);
#397=COLOUR_RGB('',0.956862745098039,0.956862745098039,0.956862745098039);
ENDSEC;
END-ISO-10303-21;
