ISO-10303-21;
HEADER;
/* Generated by software containing ST-Developer
 * from STEP Tools, Inc. (www.steptools.com) 
 */

FILE_DESCRIPTION(
/* description */ (''),
/* implementation_level */ '2;1');

FILE_NAME(
/* name */ 
'S:\\Bilder_neu\\17044_KriTec_Senkkopfschraube_M8x25_ISO_10642_DIN_799
1\\Inventordateien\\17044_KriTec_Senkkopfschraube_M8x25_ISO_10642_DIN_
7991.stp',
/* time_stamp */ '2015-02-16T09:44:52+01:00',
/* author */ ('kostic'),
/* organization */ (''),
/* preprocessor_version */ 'ST-DEVELOPER v15.2',
/* originating_system */ 'Autodesk Inventor 2014',
/* authorisation */ '');

FILE_SCHEMA (('CONFIG_CONTROL_DESIGN'));
ENDSEC;

DATA;
#10=SHAPE_REPRESENTATION_RELATIONSHIP('SRR','None',#363,#11);
#11=ADVANCED_BREP_SHAPE_REPRESENTATION($,(#214),#354);
#12=STYLED_ITEM($,(#371),#214);
#13=LINE($,#315,#31);
#14=LINE($,#317,#32);
#15=LINE($,#319,#33);
#16=LINE($,#320,#34);
#17=LINE($,#323,#35);
#18=LINE($,#325,#36);
#19=LINE($,#326,#37);
#20=LINE($,#329,#38);
#21=LINE($,#331,#39);
#22=LINE($,#332,#40);
#23=LINE($,#335,#41);
#24=LINE($,#337,#42);
#25=LINE($,#338,#43);
#26=LINE($,#341,#44);
#27=LINE($,#343,#45);
#28=LINE($,#344,#46);
#29=LINE($,#346,#47);
#30=LINE($,#347,#48);
#31=VECTOR($,#260,2.88675134594813);
#32=VECTOR($,#261,3.5);
#33=VECTOR($,#262,2.88675134594813);
#34=VECTOR($,#263,3.5);
#35=VECTOR($,#266,2.88675134594813);
#36=VECTOR($,#267,2.88675134594813);
#37=VECTOR($,#268,3.5);
#38=VECTOR($,#271,2.88675134594813);
#39=VECTOR($,#272,2.88675134594813);
#40=VECTOR($,#273,3.5);
#41=VECTOR($,#276,2.88675134594813);
#42=VECTOR($,#277,2.88675134594813);
#43=VECTOR($,#278,3.5);
#44=VECTOR($,#281,2.88675134594813);
#45=VECTOR($,#282,2.88675134594813);
#46=VECTOR($,#283,3.5);
#47=VECTOR($,#286,2.88675134594813);
#48=VECTOR($,#287,2.88675134594813);
#49=TOROIDAL_SURFACE($,#222,4.5,0.5);
#50=PLANE($,#221);
#51=PLANE($,#226);
#52=PLANE($,#227);
#53=PLANE($,#228);
#54=PLANE($,#229);
#55=PLANE($,#230);
#56=PLANE($,#231);
#57=PLANE($,#232);
#58=PLANE($,#233);
#59=CYLINDRICAL_SURFACE($,#219,4.);
#60=CYLINDRICAL_SURFACE($,#235,8.);
#61=FACE_BOUND($,#82,.T.);
#62=FACE_BOUND($,#84,.T.);
#63=FACE_BOUND($,#87,.T.);
#64=FACE_BOUND($,#89,.T.);
#65=FACE_BOUND($,#97,.T.);
#66=FACE_BOUND($,#98,.T.);
#67=FACE_BOUND($,#100,.T.);
#68=FACE_OUTER_BOUND($,#81,.T.);
#69=FACE_OUTER_BOUND($,#83,.T.);
#70=FACE_OUTER_BOUND($,#85,.T.);
#71=FACE_OUTER_BOUND($,#86,.T.);
#72=FACE_OUTER_BOUND($,#88,.T.);
#73=FACE_OUTER_BOUND($,#90,.T.);
#74=FACE_OUTER_BOUND($,#91,.T.);
#75=FACE_OUTER_BOUND($,#92,.T.);
#76=FACE_OUTER_BOUND($,#93,.T.);
#77=FACE_OUTER_BOUND($,#94,.T.);
#78=FACE_OUTER_BOUND($,#95,.T.);
#79=FACE_OUTER_BOUND($,#96,.T.);
#80=FACE_OUTER_BOUND($,#99,.T.);
#81=EDGE_LOOP($,(#149));
#82=EDGE_LOOP($,(#150));
#83=EDGE_LOOP($,(#151));
#84=EDGE_LOOP($,(#152));
#85=EDGE_LOOP($,(#153));
#86=EDGE_LOOP($,(#154));
#87=EDGE_LOOP($,(#155));
#88=EDGE_LOOP($,(#156));
#89=EDGE_LOOP($,(#157));
#90=EDGE_LOOP($,(#158,#159,#160,#161));
#91=EDGE_LOOP($,(#162,#163,#164,#165));
#92=EDGE_LOOP($,(#166,#167,#168,#169));
#93=EDGE_LOOP($,(#170,#171,#172,#173));
#94=EDGE_LOOP($,(#174,#175,#176,#177));
#95=EDGE_LOOP($,(#178,#179,#180,#181));
#96=EDGE_LOOP($,(#182,#183,#184,#185,#186,#187));
#97=EDGE_LOOP($,(#188,#189,#190,#191,#192,#193));
#98=EDGE_LOOP($,(#194));
#99=EDGE_LOOP($,(#195));
#100=EDGE_LOOP($,(#196));
#101=CIRCLE($,#217,4.);
#102=CIRCLE($,#218,3.375);
#103=CIRCLE($,#220,4.);
#104=CIRCLE($,#223,4.14644660940673);
#105=CIRCLE($,#225,8.);
#106=CIRCLE($,#234,8.);
#107=VERTEX_POINT($,#298);
#108=VERTEX_POINT($,#300);
#109=VERTEX_POINT($,#303);
#110=VERTEX_POINT($,#307);
#111=VERTEX_POINT($,#310);
#112=VERTEX_POINT($,#313);
#113=VERTEX_POINT($,#314);
#114=VERTEX_POINT($,#316);
#115=VERTEX_POINT($,#318);
#116=VERTEX_POINT($,#322);
#117=VERTEX_POINT($,#324);
#118=VERTEX_POINT($,#328);
#119=VERTEX_POINT($,#330);
#120=VERTEX_POINT($,#334);
#121=VERTEX_POINT($,#336);
#122=VERTEX_POINT($,#340);
#123=VERTEX_POINT($,#342);
#124=VERTEX_POINT($,#350);
#125=EDGE_CURVE($,#107,#107,#101,.T.);
#126=EDGE_CURVE($,#108,#108,#102,.T.);
#127=EDGE_CURVE($,#109,#109,#103,.T.);
#128=EDGE_CURVE($,#110,#110,#104,.T.);
#129=EDGE_CURVE($,#111,#111,#105,.T.);
#130=EDGE_CURVE($,#112,#113,#13,.T.);
#131=EDGE_CURVE($,#114,#112,#14,.T.);
#132=EDGE_CURVE($,#115,#114,#15,.T.);
#133=EDGE_CURVE($,#115,#113,#16,.T.);
#134=EDGE_CURVE($,#113,#116,#17,.T.);
#135=EDGE_CURVE($,#117,#115,#18,.T.);
#136=EDGE_CURVE($,#117,#116,#19,.T.);
#137=EDGE_CURVE($,#116,#118,#20,.T.);
#138=EDGE_CURVE($,#119,#117,#21,.T.);
#139=EDGE_CURVE($,#119,#118,#22,.T.);
#140=EDGE_CURVE($,#118,#120,#23,.T.);
#141=EDGE_CURVE($,#121,#119,#24,.T.);
#142=EDGE_CURVE($,#121,#120,#25,.T.);
#143=EDGE_CURVE($,#120,#122,#26,.T.);
#144=EDGE_CURVE($,#123,#121,#27,.T.);
#145=EDGE_CURVE($,#123,#122,#28,.T.);
#146=EDGE_CURVE($,#122,#112,#29,.T.);
#147=EDGE_CURVE($,#114,#123,#30,.T.);
#148=EDGE_CURVE($,#124,#124,#106,.T.);
#149=ORIENTED_EDGE($,*,*,#125,.T.);
#150=ORIENTED_EDGE($,*,*,#126,.T.);
#151=ORIENTED_EDGE($,*,*,#127,.F.);
#152=ORIENTED_EDGE($,*,*,#125,.F.);
#153=ORIENTED_EDGE($,*,*,#126,.F.);
#154=ORIENTED_EDGE($,*,*,#128,.T.);
#155=ORIENTED_EDGE($,*,*,#127,.T.);
#156=ORIENTED_EDGE($,*,*,#129,.T.);
#157=ORIENTED_EDGE($,*,*,#128,.F.);
#158=ORIENTED_EDGE($,*,*,#130,.F.);
#159=ORIENTED_EDGE($,*,*,#131,.F.);
#160=ORIENTED_EDGE($,*,*,#132,.F.);
#161=ORIENTED_EDGE($,*,*,#133,.T.);
#162=ORIENTED_EDGE($,*,*,#134,.F.);
#163=ORIENTED_EDGE($,*,*,#133,.F.);
#164=ORIENTED_EDGE($,*,*,#135,.F.);
#165=ORIENTED_EDGE($,*,*,#136,.T.);
#166=ORIENTED_EDGE($,*,*,#137,.F.);
#167=ORIENTED_EDGE($,*,*,#136,.F.);
#168=ORIENTED_EDGE($,*,*,#138,.F.);
#169=ORIENTED_EDGE($,*,*,#139,.T.);
#170=ORIENTED_EDGE($,*,*,#140,.F.);
#171=ORIENTED_EDGE($,*,*,#139,.F.);
#172=ORIENTED_EDGE($,*,*,#141,.F.);
#173=ORIENTED_EDGE($,*,*,#142,.T.);
#174=ORIENTED_EDGE($,*,*,#143,.F.);
#175=ORIENTED_EDGE($,*,*,#142,.F.);
#176=ORIENTED_EDGE($,*,*,#144,.F.);
#177=ORIENTED_EDGE($,*,*,#145,.T.);
#178=ORIENTED_EDGE($,*,*,#146,.F.);
#179=ORIENTED_EDGE($,*,*,#145,.F.);
#180=ORIENTED_EDGE($,*,*,#147,.F.);
#181=ORIENTED_EDGE($,*,*,#131,.T.);
#182=ORIENTED_EDGE($,*,*,#130,.T.);
#183=ORIENTED_EDGE($,*,*,#134,.T.);
#184=ORIENTED_EDGE($,*,*,#137,.T.);
#185=ORIENTED_EDGE($,*,*,#140,.T.);
#186=ORIENTED_EDGE($,*,*,#143,.T.);
#187=ORIENTED_EDGE($,*,*,#146,.T.);
#188=ORIENTED_EDGE($,*,*,#132,.T.);
#189=ORIENTED_EDGE($,*,*,#147,.T.);
#190=ORIENTED_EDGE($,*,*,#144,.T.);
#191=ORIENTED_EDGE($,*,*,#141,.T.);
#192=ORIENTED_EDGE($,*,*,#138,.T.);
#193=ORIENTED_EDGE($,*,*,#135,.T.);
#194=ORIENTED_EDGE($,*,*,#148,.F.);
#195=ORIENTED_EDGE($,*,*,#129,.F.);
#196=ORIENTED_EDGE($,*,*,#148,.T.);
#197=CONICAL_SURFACE($,#216,3.6875,45.);
#198=CONICAL_SURFACE($,#224,6.,45.);
#199=ADVANCED_FACE($,(#68,#61),#197,.T.);
#200=ADVANCED_FACE($,(#69,#62),#59,.T.);
#201=ADVANCED_FACE($,(#70),#50,.T.);
#202=ADVANCED_FACE($,(#71,#63),#49,.F.);
#203=ADVANCED_FACE($,(#72,#64),#198,.T.);
#204=ADVANCED_FACE($,(#73),#51,.F.);
#205=ADVANCED_FACE($,(#74),#52,.F.);
#206=ADVANCED_FACE($,(#75),#53,.F.);
#207=ADVANCED_FACE($,(#76),#54,.F.);
#208=ADVANCED_FACE($,(#77),#55,.F.);
#209=ADVANCED_FACE($,(#78),#56,.F.);
#210=ADVANCED_FACE($,(#79),#57,.T.);
#211=ADVANCED_FACE($,(#65,#66),#58,.T.);
#212=ADVANCED_FACE($,(#80,#67),#60,.T.);
#213=CLOSED_SHELL($,(#199,#200,#201,#202,#203,#204,#205,#206,#207,#208,
#209,#210,#211,#212));
#214=MANIFOLD_SOLID_BREP('Solid1',#213);
#215=AXIS2_PLACEMENT_3D('placement',#296,#236,#237);
#216=AXIS2_PLACEMENT_3D($,#297,#238,#239);
#217=AXIS2_PLACEMENT_3D($,#299,#240,#241);
#218=AXIS2_PLACEMENT_3D($,#301,#242,#243);
#219=AXIS2_PLACEMENT_3D($,#302,#244,#245);
#220=AXIS2_PLACEMENT_3D($,#304,#246,#247);
#221=AXIS2_PLACEMENT_3D($,#305,#248,#249);
#222=AXIS2_PLACEMENT_3D($,#306,#250,#251);
#223=AXIS2_PLACEMENT_3D($,#308,#252,#253);
#224=AXIS2_PLACEMENT_3D($,#309,#254,#255);
#225=AXIS2_PLACEMENT_3D($,#311,#256,#257);
#226=AXIS2_PLACEMENT_3D($,#312,#258,#259);
#227=AXIS2_PLACEMENT_3D($,#321,#264,#265);
#228=AXIS2_PLACEMENT_3D($,#327,#269,#270);
#229=AXIS2_PLACEMENT_3D($,#333,#274,#275);
#230=AXIS2_PLACEMENT_3D($,#339,#279,#280);
#231=AXIS2_PLACEMENT_3D($,#345,#284,#285);
#232=AXIS2_PLACEMENT_3D($,#348,#288,#289);
#233=AXIS2_PLACEMENT_3D($,#349,#290,#291);
#234=AXIS2_PLACEMENT_3D($,#351,#292,#293);
#235=AXIS2_PLACEMENT_3D($,#352,#294,#295);
#236=DIRECTION('axis',(0.,0.,1.));
#237=DIRECTION('refdir',(1.,0.,0.));
#238=DIRECTION('center_axis',(0.,0.,1.));
#239=DIRECTION('ref_axis',(-1.,0.,0.));
#240=DIRECTION('center_axis',(0.,0.,-1.));
#241=DIRECTION('ref_axis',(-1.,0.,0.));
#242=DIRECTION('center_axis',(0.,0.,1.));
#243=DIRECTION('ref_axis',(-1.,0.,0.));
#244=DIRECTION('center_axis',(0.,0.,-1.));
#245=DIRECTION('ref_axis',(1.,0.,0.));
#246=DIRECTION('center_axis',(0.,0.,1.));
#247=DIRECTION('ref_axis',(-1.,-1.22464679914735E-016,0.));
#248=DIRECTION('center_axis',(0.,0.,-1.));
#249=DIRECTION('ref_axis',(-1.,0.,0.));
#250=DIRECTION('center_axis',(0.,0.,-1.));
#251=DIRECTION('ref_axis',(-1.,0.,0.));
#252=DIRECTION('center_axis',(0.,0.,-1.));
#253=DIRECTION('ref_axis',(-1.,-1.4863270656995E-032,0.));
#254=DIRECTION('center_axis',(0.,0.,1.));
#255=DIRECTION('ref_axis',(1.,0.,0.));
#256=DIRECTION('center_axis',(0.,0.,-1.));
#257=DIRECTION('ref_axis',(1.,0.,0.));
#258=DIRECTION('center_axis',(-0.499999999999999,-0.866025403784439,0.));
#259=DIRECTION('ref_axis',(0.,0.,-1.));
#260=DIRECTION($,(0.866025403784439,-0.499999999999999,0.));
#261=DIRECTION($,(0.,0.,-1.));
#262=DIRECTION($,(-0.866025403784439,0.499999999999999,0.));
#263=DIRECTION($,(0.,0.,-1.));
#264=DIRECTION('center_axis',(0.5,-0.866025403784439,0.));
#265=DIRECTION('ref_axis',(0.,0.,-1.));
#266=DIRECTION($,(0.866025403784439,0.5,0.));
#267=DIRECTION($,(-0.866025403784439,-0.5,0.));
#268=DIRECTION($,(0.,0.,-1.));
#269=DIRECTION('center_axis',(1.,0.,0.));
#270=DIRECTION('ref_axis',(0.,0.,-1.));
#271=DIRECTION($,(0.,1.,0.));
#272=DIRECTION($,(0.,-1.,0.));
#273=DIRECTION($,(0.,0.,-1.));
#274=DIRECTION('center_axis',(0.499999999999999,0.866025403784439,0.));
#275=DIRECTION('ref_axis',(0.,0.,1.));
#276=DIRECTION($,(-0.866025403784439,0.499999999999999,0.));
#277=DIRECTION($,(0.866025403784439,-0.499999999999999,0.));
#278=DIRECTION($,(0.,0.,-1.));
#279=DIRECTION('center_axis',(-0.5,0.866025403784439,0.));
#280=DIRECTION('ref_axis',(0.,0.,1.));
#281=DIRECTION($,(-0.866025403784439,-0.5,0.));
#282=DIRECTION($,(0.866025403784439,0.5,0.));
#283=DIRECTION($,(0.,0.,-1.));
#284=DIRECTION('center_axis',(-1.,0.,0.));
#285=DIRECTION('ref_axis',(0.,0.,1.));
#286=DIRECTION($,(0.,-1.,0.));
#287=DIRECTION($,(0.,1.,0.));
#288=DIRECTION('center_axis',(0.,0.,1.));
#289=DIRECTION('ref_axis',(1.,0.,0.));
#290=DIRECTION('center_axis',(0.,0.,1.));
#291=DIRECTION('ref_axis',(1.,0.,0.));
#292=DIRECTION('center_axis',(0.,0.,-1.));
#293=DIRECTION('ref_axis',(1.,0.,0.));
#294=DIRECTION('center_axis',(0.,0.,-1.));
#295=DIRECTION('ref_axis',(1.,0.,0.));
#296=CARTESIAN_POINT('',(0.,0.,0.));
#297=CARTESIAN_POINT('Origin',(0.,0.,-24.6875));
#298=CARTESIAN_POINT('',(4.,-4.89858719658941E-016,-24.375));
#299=CARTESIAN_POINT('Origin',(0.,0.,-24.375));
#300=CARTESIAN_POINT('',(3.375,4.13318294712232E-016,-25.));
#301=CARTESIAN_POINT('Origin',(0.,0.,-25.));
#302=CARTESIAN_POINT('Origin',(0.,0.,-14.7));
#303=CARTESIAN_POINT('',(4.,9.79717439317882E-016,-4.60710678118655));
#304=CARTESIAN_POINT('Origin',(0.,0.,-4.60710678118655));
#305=CARTESIAN_POINT('Origin',(2.,0.,-25.));
#306=CARTESIAN_POINT('Origin',(0.,0.,-4.60710678118655));
#307=CARTESIAN_POINT('',(4.14644660940673,1.23259516440783E-031,-4.25355339059328));
#308=CARTESIAN_POINT('Origin',(0.,5.07793256804534E-016,-4.25355339059328));
#309=CARTESIAN_POINT('Origin',(0.,0.,-2.4));
#310=CARTESIAN_POINT('',(8.,0.,-0.400000000000001));
#311=CARTESIAN_POINT('Origin',(0.,0.,-0.4));
#312=CARTESIAN_POINT('Origin',(-2.5,-1.44337567297407,-2.77555756156289E-016));
#313=CARTESIAN_POINT('',(-2.5,-1.44337567297407,-3.5));
#314=CARTESIAN_POINT('',(9.71445146547012E-016,-2.88675134594813,-3.5));
#315=CARTESIAN_POINT($,(-2.5,-1.44337567297407,-3.5));
#316=CARTESIAN_POINT('',(-2.5,-1.44337567297407,-2.77555756156289E-016));
#317=CARTESIAN_POINT($,(-2.5,-1.44337567297407,-2.77555756156289E-016));
#318=CARTESIAN_POINT('',(9.71445146547012E-016,-2.88675134594813,-2.77555756156289E-016));
#319=CARTESIAN_POINT($,(-0.374999999999997,-2.67024499500202,-2.77555756156289E-016));
#320=CARTESIAN_POINT($,(9.71445146547012E-016,-2.88675134594813,-2.77555756156289E-016));
#321=CARTESIAN_POINT('Origin',(9.71445146547012E-016,-2.88675134594813,
-2.77555756156289E-016));
#322=CARTESIAN_POINT('',(2.5,-1.44337567297406,-3.5));
#323=CARTESIAN_POINT($,(9.71445146547012E-016,-2.88675134594813,-3.5));
#324=CARTESIAN_POINT('',(2.5,-1.44337567297406,-2.77555756156289E-016));
#325=CARTESIAN_POINT($,(2.125,-1.65988202392017,-2.77555756156289E-016));
#326=CARTESIAN_POINT($,(2.5,-1.44337567297406,-2.77555756156289E-016));
#327=CARTESIAN_POINT('Origin',(2.5,-1.44337567297406,-2.77555756156289E-016));
#328=CARTESIAN_POINT('',(2.5,1.44337567297407,-3.5));
#329=CARTESIAN_POINT($,(2.5,-1.44337567297406,-3.5));
#330=CARTESIAN_POINT('',(2.5,1.44337567297407,-2.77555756156289E-016));
#331=CARTESIAN_POINT($,(2.5,-0.721687836487032,-2.77555756156289E-016));
#332=CARTESIAN_POINT($,(2.5,1.44337567297407,-2.77555756156289E-016));
#333=CARTESIAN_POINT('Origin',(2.5,1.44337567297407,-2.77555756156289E-016));
#334=CARTESIAN_POINT('',(-8.32667268468867E-016,2.88675134594813,-3.5));
#335=CARTESIAN_POINT($,(2.5,1.44337567297407,-3.5));
#336=CARTESIAN_POINT('',(-8.32667268468867E-016,2.88675134594813,-2.77555756156289E-016));
#337=CARTESIAN_POINT($,(3.375,0.938194187433145,-2.77555756156289E-016));
#338=CARTESIAN_POINT($,(-8.32667268468867E-016,2.88675134594813,-2.77555756156289E-016));
#339=CARTESIAN_POINT('Origin',(-8.32667268468867E-016,2.88675134594813,
-2.77555756156289E-016));
#340=CARTESIAN_POINT('',(-2.5,1.44337567297407,-3.5));
#341=CARTESIAN_POINT($,(-8.32667268468867E-016,2.88675134594813,-3.5));
#342=CARTESIAN_POINT('',(-2.5,1.44337567297407,-2.77555756156289E-016));
#343=CARTESIAN_POINT($,(0.875000000000001,3.39193283148905,-2.77555756156289E-016));
#344=CARTESIAN_POINT($,(-2.5,1.44337567297407,-2.77555756156289E-016));
#345=CARTESIAN_POINT('Origin',(-2.5,1.44337567297407,-2.77555756156289E-016));
#346=CARTESIAN_POINT($,(-2.5,1.44337567297407,-3.5));
#347=CARTESIAN_POINT($,(-2.5,0.721687836487033,-2.77555756156289E-016));
#348=CARTESIAN_POINT('Origin',(1.04083408558608E-016,1.38777878078145E-016,
-3.5));
#349=CARTESIAN_POINT('Origin',(4.,0.,-2.77555756156289E-016));
#350=CARTESIAN_POINT('',(8.,0.,-8.32667268468867E-016));
#351=CARTESIAN_POINT('Origin',(0.,0.,0.));
#352=CARTESIAN_POINT('Origin',(0.,0.,-0.2));
#353=UNCERTAINTY_MEASURE_WITH_UNIT(LENGTH_MEASURE(0.01),#355,
'DISTANCE_ACCURACY_VALUE',
'Maximum model space distance between geometric entities at asserted c
onnectivities');
#354=(
GEOMETRIC_REPRESENTATION_CONTEXT(3)
GLOBAL_UNCERTAINTY_ASSIGNED_CONTEXT((#353))
GLOBAL_UNIT_ASSIGNED_CONTEXT((#355,#358,#356))
REPRESENTATION_CONTEXT('','3D')
);
#355=(
LENGTH_UNIT()
NAMED_UNIT(*)
SI_UNIT(.MILLI.,.METRE.)
);
#356=(
NAMED_UNIT(*)
SI_UNIT($,.STERADIAN.)
SOLID_ANGLE_UNIT()
);
#357=DIMENSIONAL_EXPONENTS(0.,0.,0.,0.,0.,0.,0.);
#358=(
CONVERSION_BASED_UNIT('degree',#360)
NAMED_UNIT(#357)
PLANE_ANGLE_UNIT()
);
#359=(
NAMED_UNIT(*)
PLANE_ANGLE_UNIT()
SI_UNIT($,.RADIAN.)
);
#360=PLANE_ANGLE_MEASURE_WITH_UNIT(PLANE_ANGLE_MEASURE(0.01745329252),#359);
#361=SHAPE_DEFINITION_REPRESENTATION(#362,#363);
#362=PRODUCT_DEFINITION_SHAPE('',$,#365);
#363=SHAPE_REPRESENTATION('',(#215),#354);
#364=DESIGN_CONTEXT('3D Mechanical Parts',#368,'design');
#365=PRODUCT_DEFINITION(
'17044_KriTec_Senkkopfschraube_M8x25_ISO_10642_DIN_7991',
'17044_KriTec_Senkkopfschraube_M8x25_ISO_10642_DIN_7991',#366,#364);
#366=PRODUCT_DEFINITION_FORMATION('',$,#370);
#367=APPLICATION_PROTOCOL_DEFINITION('international standard',
'ap203_configuration_controlled_3d_design_of_mechanical_parts_and_asse
mblies_mim_lf',2004,#368);
#368=APPLICATION_CONTEXT(
'Configuration Controlled 3D Design of Mechanical Parts and Assemblies');
#369=MECHANICAL_CONTEXT('3D Mechanical Parts',#368,'mechanical');
#370=PRODUCT('17044_KriTec_Senkkopfschraube_M8x25_ISO_10642_DIN_7991',
'17044_KriTec_Senkkopfschraube_M8x25_ISO_10642_DIN_7991',$,(#369));
#371=PRESENTATION_STYLE_ASSIGNMENT((#372));
#372=SURFACE_STYLE_USAGE(.BOTH.,#373);
#373=SURFACE_SIDE_STYLE($,(#374));
#374=SURFACE_STYLE_FILL_AREA(#375);
#375=FILL_AREA_STYLE($,(#376));
#376=FILL_AREA_STYLE_COLOUR($,#377);
#377=COLOUR_RGB('',0.831372549019608,0.831372549019608,0.831372549019608);
ENDSEC;
END-ISO-10303-21;
