ISO-10303-21;
HEADER;
/* Generated by software containing ST-Developer
 * from STEP Tools, Inc. (www.steptools.com) 
 */

FILE_DESCRIPTION(
/* description */ (''),
/* implementation_level */ '2;1');

FILE_NAME(
/* name */ 
'S:\\Bilder_neu\\15310_KriTec_Schnorr_Sicherungsscheibe_S8\\Inventorda
teien\\15310_KriTec_Schnorr_Sicherungsscheibe_S8.stp',
/* time_stamp */ '2014-06-23T16:20:30+02:00',
/* author */ ('kostic'),
/* organization */ (''),
/* preprocessor_version */ 'ST-DEVELOPER v15.2',
/* originating_system */ 'Autodesk Inventor 2014',
/* authorisation */ '');

FILE_SCHEMA (('AUTOMOTIVE_DESIGN { 1 0 10303 214 3 1 1 }'));
ENDSEC;

DATA;
#10=SHAPE_REPRESENTATION_RELATIONSHIP('SRR','None',#109,#11);
#11=ADVANCED_BREP_SHAPE_REPRESENTATION($,(#58),#100);
#12=STYLED_ITEM($,(#117),#58);
#13=FACE_BOUND($,#22,.T.);
#14=FACE_BOUND($,#24,.T.);
#15=FACE_BOUND($,#26,.T.);
#16=FACE_BOUND($,#28,.T.);
#17=FACE_OUTER_BOUND($,#21,.T.);
#18=FACE_OUTER_BOUND($,#23,.T.);
#19=FACE_OUTER_BOUND($,#25,.T.);
#20=FACE_OUTER_BOUND($,#27,.T.);
#21=EDGE_LOOP($,(#41));
#22=EDGE_LOOP($,(#42));
#23=EDGE_LOOP($,(#43));
#24=EDGE_LOOP($,(#44));
#25=EDGE_LOOP($,(#45));
#26=EDGE_LOOP($,(#46));
#27=EDGE_LOOP($,(#47));
#28=EDGE_LOOP($,(#48));
#29=CIRCLE($,#61,6.29541310870281);
#30=CIRCLE($,#62,6.4);
#31=CIRCLE($,#64,4.25);
#32=CIRCLE($,#66,4.35458689129719);
#33=VERTEX_POINT($,#88);
#34=VERTEX_POINT($,#90);
#35=VERTEX_POINT($,#93);
#36=VERTEX_POINT($,#96);
#37=EDGE_CURVE($,#33,#33,#29,.T.);
#38=EDGE_CURVE($,#34,#34,#30,.T.);
#39=EDGE_CURVE($,#35,#35,#31,.T.);
#40=EDGE_CURVE($,#36,#36,#32,.T.);
#41=ORIENTED_EDGE($,*,*,#37,.F.);
#42=ORIENTED_EDGE($,*,*,#38,.T.);
#43=ORIENTED_EDGE($,*,*,#39,.F.);
#44=ORIENTED_EDGE($,*,*,#37,.T.);
#45=ORIENTED_EDGE($,*,*,#40,.F.);
#46=ORIENTED_EDGE($,*,*,#39,.T.);
#47=ORIENTED_EDGE($,*,*,#38,.F.);
#48=ORIENTED_EDGE($,*,*,#40,.T.);
#49=CONICAL_SURFACE($,#60,6.34770655435141,4.99999999999996);
#50=CONICAL_SURFACE($,#63,5.27270655435141,85.0000000000001);
#51=CONICAL_SURFACE($,#65,4.3022934456486,4.99999999999998);
#52=CONICAL_SURFACE($,#67,5.3772934456486,85.);
#53=ADVANCED_FACE($,(#17,#13),#49,.T.);
#54=ADVANCED_FACE($,(#18,#14),#50,.F.);
#55=ADVANCED_FACE($,(#19,#15),#51,.F.);
#56=ADVANCED_FACE($,(#20,#16),#52,.T.);
#57=CLOSED_SHELL($,(#53,#54,#55,#56));
#58=MANIFOLD_SOLID_BREP('Volumenk\X\F6rper1',#57);
#59=AXIS2_PLACEMENT_3D('placement',#86,#68,#69);
#60=AXIS2_PLACEMENT_3D($,#87,#70,#71);
#61=AXIS2_PLACEMENT_3D($,#89,#72,#73);
#62=AXIS2_PLACEMENT_3D($,#91,#74,#75);
#63=AXIS2_PLACEMENT_3D($,#92,#76,#77);
#64=AXIS2_PLACEMENT_3D($,#94,#78,#79);
#65=AXIS2_PLACEMENT_3D($,#95,#80,#81);
#66=AXIS2_PLACEMENT_3D($,#97,#82,#83);
#67=AXIS2_PLACEMENT_3D($,#98,#84,#85);
#68=DIRECTION('axis',(0.,0.,1.));
#69=DIRECTION('refdir',(1.,0.,0.));
#70=DIRECTION('center_axis',(-1.49702920855307E-016,1.,0.));
#71=DIRECTION('ref_axis',(1.,1.73540566885961E-016,0.));
#72=DIRECTION('center_axis',(1.49702920855307E-016,-1.,0.));
#73=DIRECTION('ref_axis',(1.,1.73540566885961E-016,0.));
#74=DIRECTION('center_axis',(1.49702920855307E-016,-1.,0.));
#75=DIRECTION('ref_axis',(1.,1.73540566885961E-016,0.));
#76=DIRECTION('center_axis',(1.49702920855307E-016,-1.,0.));
#77=DIRECTION('ref_axis',(1.,1.73540566885961E-016,0.));
#78=DIRECTION('center_axis',(1.49702920855307E-016,-1.,0.));
#79=DIRECTION('ref_axis',(1.,1.73540566885961E-016,0.));
#80=DIRECTION('center_axis',(-1.49702920855307E-016,1.,0.));
#81=DIRECTION('ref_axis',(1.,1.73540566885961E-016,0.));
#82=DIRECTION('center_axis',(1.49702920855307E-016,-1.,0.));
#83=DIRECTION('ref_axis',(1.,1.73540566885961E-016,0.));
#84=DIRECTION('center_axis',(1.49702920855307E-016,-1.,0.));
#85=DIRECTION('ref_axis',(1.,1.73540566885961E-016,0.));
#86=CARTESIAN_POINT('',(0.,0.,0.));
#87=CARTESIAN_POINT('Origin',(-5.44142862464176,6.24203382089003,0.));
#88=CARTESIAN_POINT('',(0.853984484061053,5.64431700203498,0.));
#89=CARTESIAN_POINT('Origin',(-5.44142862464176,5.64431700203498,0.));
#90=CARTESIAN_POINT('',(0.958571375358242,6.83975063974508,0.));
#91=CARTESIAN_POINT('Origin',(-5.44142862464176,6.83975063974507,0.));
#92=CARTESIAN_POINT('Origin',(-5.44142862464176,5.73379223165439,0.));
#93=CARTESIAN_POINT('',(-1.19142862464176,5.82326746127379,0.));
#94=CARTESIAN_POINT('Origin',(-5.44142862464176,5.82326746127379,0.));
#95=CARTESIAN_POINT('Origin',(-5.44142862464176,6.42098428012884,0.));
#96=CARTESIAN_POINT('',(-1.08684173334457,7.01870109898389,0.));
#97=CARTESIAN_POINT('Origin',(-5.44142862464176,7.01870109898389,0.));
#98=CARTESIAN_POINT('Origin',(-5.44142862464176,6.92922586936448,0.));
#99=UNCERTAINTY_MEASURE_WITH_UNIT(LENGTH_MEASURE(0.01),#101,
'DISTANCE_ACCURACY_VALUE',
'Maximum model space distance between geometric entities at asserted c
onnectivities');
#100=(
GEOMETRIC_REPRESENTATION_CONTEXT(3)
GLOBAL_UNCERTAINTY_ASSIGNED_CONTEXT((#99))
GLOBAL_UNIT_ASSIGNED_CONTEXT((#101,#104,#102))
REPRESENTATION_CONTEXT('','3D')
);
#101=(
LENGTH_UNIT()
NAMED_UNIT(*)
SI_UNIT(.MILLI.,.METRE.)
);
#102=(
NAMED_UNIT(*)
SI_UNIT($,.STERADIAN.)
SOLID_ANGLE_UNIT()
);
#103=DIMENSIONAL_EXPONENTS(0.,0.,0.,0.,0.,0.,0.);
#104=(
CONVERSION_BASED_UNIT('degree',#106)
NAMED_UNIT(#103)
PLANE_ANGLE_UNIT()
);
#105=(
NAMED_UNIT(*)
PLANE_ANGLE_UNIT()
SI_UNIT($,.RADIAN.)
);
#106=PLANE_ANGLE_MEASURE_WITH_UNIT(PLANE_ANGLE_MEASURE(0.01745329252),#105);
#107=SHAPE_DEFINITION_REPRESENTATION(#108,#109);
#108=PRODUCT_DEFINITION_SHAPE('',$,#111);
#109=SHAPE_REPRESENTATION('',(#59),#100);
#110=PRODUCT_DEFINITION_CONTEXT('3D Mechanical Parts',#114,'design');
#111=PRODUCT_DEFINITION('15310_KriTec_Schnorr_Sicherungsscheibe_S8',
'15310_KriTec_Schnorr_Sicherungsscheibe_S8',#112,#110);
#112=PRODUCT_DEFINITION_FORMATION('',$,#116);
#113=APPLICATION_PROTOCOL_DEFINITION('international standard',
'automotive_design',2009,#114);
#114=APPLICATION_CONTEXT(
'Core Data for Automotive Mechanical Design Process');
#115=PRODUCT_CONTEXT('3D Mechanical Parts',#114,'mechanical');
#116=PRODUCT('15310_KriTec_Schnorr_Sicherungsscheibe_S8',
'15310_KriTec_Schnorr_Sicherungsscheibe_S8',$,(#115));
#117=PRESENTATION_STYLE_ASSIGNMENT((#118));
#118=SURFACE_STYLE_USAGE(.BOTH.,#119);
#119=SURFACE_SIDE_STYLE($,(#120));
#120=SURFACE_STYLE_FILL_AREA(#121);
#121=FILL_AREA_STYLE($,(#122));
#122=FILL_AREA_STYLE_COLOUR($,#123);
#123=COLOUR_RGB('',0.87843137254902,0.874509803921569,0.858823529411765);
ENDSEC;
END-ISO-10303-21;
