ISO-10303-21;
HEADER;
/* Generated by software containing ST-Developer
 * from STEP Tools, Inc. (www.steptools.com) 
 */

FILE_DESCRIPTION(
/* description */ (''),
/* implementation_level */ '2;1');

FILE_NAME(
/* name */ 
'S:\\Bilder_neu\\14193_KriTec_Bodenwinkel_10_45_160x60x40_St_schwarz_p
ulverbeschichtet\\Inventordateien\\14193_KriTec_Bodenwinkel_10_45_160x
60x40_St_schwarz_pulverbeschichtet.stp',
/* time_stamp */ '2014-12-10T15:09:30+01:00',
/* author */ ('kostic'),
/* organization */ (''),
/* preprocessor_version */ 'ST-DEVELOPER v15.2',
/* originating_system */ 'Autodesk Inventor 2014',
/* authorisation */ '');

FILE_SCHEMA (('AUTOMOTIVE_DESIGN { 1 0 10303 214 3 1 1 }'));
ENDSEC;

DATA;
#10=SHAPE_REPRESENTATION_RELATIONSHIP('SRR','None',#615,#11);
#11=ADVANCED_BREP_SHAPE_REPRESENTATION($,(#358),#606);
#12=STYLED_ITEM($,(#623),#358);
#13=PLANE($,#369);
#14=PLANE($,#370);
#15=PLANE($,#375);
#16=PLANE($,#379);
#17=PLANE($,#380);
#18=PLANE($,#384);
#19=PLANE($,#390);
#20=PLANE($,#391);
#21=PLANE($,#393);
#22=PLANE($,#395);
#23=PLANE($,#397);
#24=PLANE($,#398);
#25=LINE($,#523,#53);
#26=LINE($,#526,#54);
#27=LINE($,#529,#55);
#28=LINE($,#531,#56);
#29=LINE($,#532,#57);
#30=LINE($,#537,#58);
#31=LINE($,#541,#59);
#32=LINE($,#542,#60);
#33=LINE($,#547,#61);
#34=LINE($,#548,#62);
#35=LINE($,#551,#63);
#36=LINE($,#552,#64);
#37=LINE($,#558,#65);
#38=LINE($,#561,#66);
#39=LINE($,#564,#67);
#40=LINE($,#566,#68);
#41=LINE($,#567,#69);
#42=LINE($,#570,#70);
#43=LINE($,#572,#71);
#44=LINE($,#574,#72);
#45=LINE($,#579,#73);
#46=LINE($,#582,#74);
#47=LINE($,#583,#75);
#48=LINE($,#589,#76);
#49=LINE($,#593,#77);
#50=LINE($,#594,#78);
#51=LINE($,#601,#79);
#52=LINE($,#603,#80);
#53=VECTOR($,#417,5.);
#54=VECTOR($,#420,5.);
#55=VECTOR($,#423,46.);
#56=VECTOR($,#424,5.);
#57=VECTOR($,#425,46.);
#58=VECTOR($,#430,31.5);
#59=VECTOR($,#433,46.);
#60=VECTOR($,#434,39.5);
#61=VECTOR($,#439,5.);
#62=VECTOR($,#440,5.);
#63=VECTOR($,#443,46.);
#64=VECTOR($,#444,5.);
#65=VECTOR($,#449,5.);
#66=VECTOR($,#452,5.);
#67=VECTOR($,#455,31.5);
#68=VECTOR($,#456,5.);
#69=VECTOR($,#457,31.5);
#70=VECTOR($,#460,146.);
#71=VECTOR($,#461,39.5);
#72=VECTOR($,#462,146.);
#73=VECTOR($,#469,5.);
#74=VECTOR($,#472,5.);
#75=VECTOR($,#473,146.);
#76=VECTOR($,#480,39.5);
#77=VECTOR($,#487,146.);
#78=VECTOR($,#488,5.);
#79=VECTOR($,#501,39.5);
#80=VECTOR($,#504,31.5);
#81=FACE_BOUND($,#112,.T.);
#82=FACE_BOUND($,#114,.T.);
#83=FACE_BOUND($,#117,.T.);
#84=FACE_BOUND($,#118,.T.);
#85=FACE_BOUND($,#123,.T.);
#86=FACE_BOUND($,#124,.T.);
#87=FACE_BOUND($,#125,.T.);
#88=FACE_BOUND($,#129,.T.);
#89=FACE_BOUND($,#134,.T.);
#90=FACE_BOUND($,#135,.T.);
#91=FACE_BOUND($,#136,.T.);
#92=FACE_BOUND($,#140,.T.);
#93=FACE_OUTER_BOUND($,#111,.T.);
#94=FACE_OUTER_BOUND($,#113,.T.);
#95=FACE_OUTER_BOUND($,#115,.T.);
#96=FACE_OUTER_BOUND($,#116,.T.);
#97=FACE_OUTER_BOUND($,#119,.T.);
#98=FACE_OUTER_BOUND($,#120,.T.);
#99=FACE_OUTER_BOUND($,#121,.T.);
#100=FACE_OUTER_BOUND($,#122,.T.);
#101=FACE_OUTER_BOUND($,#126,.T.);
#102=FACE_OUTER_BOUND($,#127,.T.);
#103=FACE_OUTER_BOUND($,#128,.T.);
#104=FACE_OUTER_BOUND($,#130,.T.);
#105=FACE_OUTER_BOUND($,#131,.T.);
#106=FACE_OUTER_BOUND($,#132,.T.);
#107=FACE_OUTER_BOUND($,#133,.T.);
#108=FACE_OUTER_BOUND($,#137,.T.);
#109=FACE_OUTER_BOUND($,#138,.T.);
#110=FACE_OUTER_BOUND($,#139,.T.);
#111=EDGE_LOOP($,(#235));
#112=EDGE_LOOP($,(#236));
#113=EDGE_LOOP($,(#237));
#114=EDGE_LOOP($,(#238));
#115=EDGE_LOOP($,(#239,#240,#241,#242));
#116=EDGE_LOOP($,(#243,#244,#245,#246));
#117=EDGE_LOOP($,(#247));
#118=EDGE_LOOP($,(#248,#249,#250,#251,#252,#253));
#119=EDGE_LOOP($,(#254,#255,#256,#257));
#120=EDGE_LOOP($,(#258,#259,#260,#261));
#121=EDGE_LOOP($,(#262,#263,#264,#265));
#122=EDGE_LOOP($,(#266,#267,#268,#269));
#123=EDGE_LOOP($,(#270));
#124=EDGE_LOOP($,(#271));
#125=EDGE_LOOP($,(#272,#273,#274,#275,#276,#277));
#126=EDGE_LOOP($,(#278,#279,#280,#281));
#127=EDGE_LOOP($,(#282,#283,#284,#285));
#128=EDGE_LOOP($,(#286));
#129=EDGE_LOOP($,(#287));
#130=EDGE_LOOP($,(#288,#289,#290,#291));
#131=EDGE_LOOP($,(#292,#293,#294,#295));
#132=EDGE_LOOP($,(#296,#297,#298,#299));
#133=EDGE_LOOP($,(#300,#301,#302,#303));
#134=EDGE_LOOP($,(#304));
#135=EDGE_LOOP($,(#305));
#136=EDGE_LOOP($,(#306,#307,#308,#309,#310,#311));
#137=EDGE_LOOP($,(#312,#313,#314,#315));
#138=EDGE_LOOP($,(#316,#317,#318,#319));
#139=EDGE_LOOP($,(#320,#321,#322,#323,#324,#325));
#140=EDGE_LOOP($,(#326));
#141=CIRCLE($,#361,4.25);
#142=CIRCLE($,#362,4.25);
#143=CIRCLE($,#364,4.25);
#144=CIRCLE($,#365,4.25);
#145=CIRCLE($,#367,4.);
#146=CIRCLE($,#368,4.);
#147=CIRCLE($,#371,7.);
#148=CIRCLE($,#372,4.);
#149=CIRCLE($,#374,4.);
#150=CIRCLE($,#377,4.);
#151=CIRCLE($,#378,4.);
#152=CIRCLE($,#381,4.);
#153=CIRCLE($,#383,4.);
#154=CIRCLE($,#386,7.);
#155=CIRCLE($,#388,10.);
#156=CIRCLE($,#389,10.);
#157=CIRCLE($,#392,5.);
#158=CIRCLE($,#394,5.);
#159=VERTEX_POINT($,#509);
#160=VERTEX_POINT($,#511);
#161=VERTEX_POINT($,#514);
#162=VERTEX_POINT($,#516);
#163=VERTEX_POINT($,#519);
#164=VERTEX_POINT($,#520);
#165=VERTEX_POINT($,#522);
#166=VERTEX_POINT($,#524);
#167=VERTEX_POINT($,#528);
#168=VERTEX_POINT($,#530);
#169=VERTEX_POINT($,#534);
#170=VERTEX_POINT($,#536);
#171=VERTEX_POINT($,#538);
#172=VERTEX_POINT($,#540);
#173=VERTEX_POINT($,#544);
#174=VERTEX_POINT($,#545);
#175=VERTEX_POINT($,#550);
#176=VERTEX_POINT($,#554);
#177=VERTEX_POINT($,#555);
#178=VERTEX_POINT($,#557);
#179=VERTEX_POINT($,#559);
#180=VERTEX_POINT($,#563);
#181=VERTEX_POINT($,#565);
#182=VERTEX_POINT($,#569);
#183=VERTEX_POINT($,#571);
#184=VERTEX_POINT($,#573);
#185=VERTEX_POINT($,#577);
#186=VERTEX_POINT($,#581);
#187=VERTEX_POINT($,#585);
#188=VERTEX_POINT($,#588);
#189=EDGE_CURVE($,#159,#159,#141,.T.);
#190=EDGE_CURVE($,#160,#160,#142,.T.);
#191=EDGE_CURVE($,#161,#161,#143,.T.);
#192=EDGE_CURVE($,#162,#162,#144,.T.);
#193=EDGE_CURVE($,#163,#164,#145,.T.);
#194=EDGE_CURVE($,#164,#165,#25,.T.);
#195=EDGE_CURVE($,#165,#166,#146,.T.);
#196=EDGE_CURVE($,#166,#163,#26,.T.);
#197=EDGE_CURVE($,#167,#166,#27,.T.);
#198=EDGE_CURVE($,#167,#168,#28,.T.);
#199=EDGE_CURVE($,#163,#168,#29,.T.);
#200=EDGE_CURVE($,#169,#169,#147,.T.);
#201=EDGE_CURVE($,#165,#170,#30,.T.);
#202=EDGE_CURVE($,#171,#170,#148,.T.);
#203=EDGE_CURVE($,#171,#172,#31,.T.);
#204=EDGE_CURVE($,#172,#167,#32,.T.);
#205=EDGE_CURVE($,#173,#174,#149,.T.);
#206=EDGE_CURVE($,#174,#171,#33,.T.);
#207=EDGE_CURVE($,#170,#173,#34,.T.);
#208=EDGE_CURVE($,#175,#174,#35,.T.);
#209=EDGE_CURVE($,#175,#172,#36,.T.);
#210=EDGE_CURVE($,#176,#177,#150,.T.);
#211=EDGE_CURVE($,#177,#178,#37,.T.);
#212=EDGE_CURVE($,#178,#179,#151,.T.);
#213=EDGE_CURVE($,#179,#176,#38,.T.);
#214=EDGE_CURVE($,#180,#179,#39,.T.);
#215=EDGE_CURVE($,#181,#180,#40,.T.);
#216=EDGE_CURVE($,#181,#176,#41,.T.);
#217=EDGE_CURVE($,#178,#182,#42,.T.);
#218=EDGE_CURVE($,#182,#183,#43,.T.);
#219=EDGE_CURVE($,#184,#183,#44,.T.);
#220=EDGE_CURVE($,#180,#184,#152,.T.);
#221=EDGE_CURVE($,#185,#181,#153,.T.);
#222=EDGE_CURVE($,#184,#185,#45,.T.);
#223=EDGE_CURVE($,#183,#186,#46,.T.);
#224=EDGE_CURVE($,#186,#185,#47,.T.);
#225=EDGE_CURVE($,#187,#187,#154,.T.);
#226=EDGE_CURVE($,#186,#188,#48,.T.);
#227=EDGE_CURVE($,#167,#186,#155,.T.);
#228=EDGE_CURVE($,#188,#172,#156,.T.);
#229=EDGE_CURVE($,#177,#188,#49,.T.);
#230=EDGE_CURVE($,#188,#182,#50,.T.);
#231=EDGE_CURVE($,#183,#168,#157,.T.);
#232=EDGE_CURVE($,#182,#175,#158,.T.);
#233=EDGE_CURVE($,#168,#175,#51,.T.);
#234=EDGE_CURVE($,#173,#164,#52,.T.);
#235=ORIENTED_EDGE($,*,*,#189,.F.);
#236=ORIENTED_EDGE($,*,*,#190,.F.);
#237=ORIENTED_EDGE($,*,*,#191,.F.);
#238=ORIENTED_EDGE($,*,*,#192,.F.);
#239=ORIENTED_EDGE($,*,*,#193,.T.);
#240=ORIENTED_EDGE($,*,*,#194,.T.);
#241=ORIENTED_EDGE($,*,*,#195,.T.);
#242=ORIENTED_EDGE($,*,*,#196,.T.);
#243=ORIENTED_EDGE($,*,*,#196,.F.);
#244=ORIENTED_EDGE($,*,*,#197,.F.);
#245=ORIENTED_EDGE($,*,*,#198,.T.);
#246=ORIENTED_EDGE($,*,*,#199,.F.);
#247=ORIENTED_EDGE($,*,*,#200,.T.);
#248=ORIENTED_EDGE($,*,*,#195,.F.);
#249=ORIENTED_EDGE($,*,*,#201,.T.);
#250=ORIENTED_EDGE($,*,*,#202,.F.);
#251=ORIENTED_EDGE($,*,*,#203,.T.);
#252=ORIENTED_EDGE($,*,*,#204,.T.);
#253=ORIENTED_EDGE($,*,*,#197,.T.);
#254=ORIENTED_EDGE($,*,*,#205,.T.);
#255=ORIENTED_EDGE($,*,*,#206,.T.);
#256=ORIENTED_EDGE($,*,*,#202,.T.);
#257=ORIENTED_EDGE($,*,*,#207,.T.);
#258=ORIENTED_EDGE($,*,*,#206,.F.);
#259=ORIENTED_EDGE($,*,*,#208,.F.);
#260=ORIENTED_EDGE($,*,*,#209,.T.);
#261=ORIENTED_EDGE($,*,*,#203,.F.);
#262=ORIENTED_EDGE($,*,*,#210,.T.);
#263=ORIENTED_EDGE($,*,*,#211,.T.);
#264=ORIENTED_EDGE($,*,*,#212,.T.);
#265=ORIENTED_EDGE($,*,*,#213,.T.);
#266=ORIENTED_EDGE($,*,*,#213,.F.);
#267=ORIENTED_EDGE($,*,*,#214,.F.);
#268=ORIENTED_EDGE($,*,*,#215,.F.);
#269=ORIENTED_EDGE($,*,*,#216,.T.);
#270=ORIENTED_EDGE($,*,*,#190,.T.);
#271=ORIENTED_EDGE($,*,*,#192,.T.);
#272=ORIENTED_EDGE($,*,*,#212,.F.);
#273=ORIENTED_EDGE($,*,*,#217,.T.);
#274=ORIENTED_EDGE($,*,*,#218,.T.);
#275=ORIENTED_EDGE($,*,*,#219,.F.);
#276=ORIENTED_EDGE($,*,*,#220,.F.);
#277=ORIENTED_EDGE($,*,*,#214,.T.);
#278=ORIENTED_EDGE($,*,*,#221,.T.);
#279=ORIENTED_EDGE($,*,*,#215,.T.);
#280=ORIENTED_EDGE($,*,*,#220,.T.);
#281=ORIENTED_EDGE($,*,*,#222,.T.);
#282=ORIENTED_EDGE($,*,*,#222,.F.);
#283=ORIENTED_EDGE($,*,*,#219,.T.);
#284=ORIENTED_EDGE($,*,*,#223,.T.);
#285=ORIENTED_EDGE($,*,*,#224,.T.);
#286=ORIENTED_EDGE($,*,*,#200,.F.);
#287=ORIENTED_EDGE($,*,*,#225,.F.);
#288=ORIENTED_EDGE($,*,*,#226,.F.);
#289=ORIENTED_EDGE($,*,*,#227,.F.);
#290=ORIENTED_EDGE($,*,*,#204,.F.);
#291=ORIENTED_EDGE($,*,*,#228,.F.);
#292=ORIENTED_EDGE($,*,*,#211,.F.);
#293=ORIENTED_EDGE($,*,*,#229,.T.);
#294=ORIENTED_EDGE($,*,*,#230,.T.);
#295=ORIENTED_EDGE($,*,*,#217,.F.);
#296=ORIENTED_EDGE($,*,*,#223,.F.);
#297=ORIENTED_EDGE($,*,*,#231,.T.);
#298=ORIENTED_EDGE($,*,*,#198,.F.);
#299=ORIENTED_EDGE($,*,*,#227,.T.);
#300=ORIENTED_EDGE($,*,*,#230,.F.);
#301=ORIENTED_EDGE($,*,*,#228,.T.);
#302=ORIENTED_EDGE($,*,*,#209,.F.);
#303=ORIENTED_EDGE($,*,*,#232,.F.);
#304=ORIENTED_EDGE($,*,*,#189,.T.);
#305=ORIENTED_EDGE($,*,*,#191,.T.);
#306=ORIENTED_EDGE($,*,*,#210,.F.);
#307=ORIENTED_EDGE($,*,*,#216,.F.);
#308=ORIENTED_EDGE($,*,*,#221,.F.);
#309=ORIENTED_EDGE($,*,*,#224,.F.);
#310=ORIENTED_EDGE($,*,*,#226,.T.);
#311=ORIENTED_EDGE($,*,*,#229,.F.);
#312=ORIENTED_EDGE($,*,*,#218,.F.);
#313=ORIENTED_EDGE($,*,*,#232,.T.);
#314=ORIENTED_EDGE($,*,*,#233,.F.);
#315=ORIENTED_EDGE($,*,*,#231,.F.);
#316=ORIENTED_EDGE($,*,*,#194,.F.);
#317=ORIENTED_EDGE($,*,*,#234,.F.);
#318=ORIENTED_EDGE($,*,*,#207,.F.);
#319=ORIENTED_EDGE($,*,*,#201,.F.);
#320=ORIENTED_EDGE($,*,*,#193,.F.);
#321=ORIENTED_EDGE($,*,*,#199,.T.);
#322=ORIENTED_EDGE($,*,*,#233,.T.);
#323=ORIENTED_EDGE($,*,*,#208,.T.);
#324=ORIENTED_EDGE($,*,*,#205,.F.);
#325=ORIENTED_EDGE($,*,*,#234,.T.);
#326=ORIENTED_EDGE($,*,*,#225,.T.);
#327=CYLINDRICAL_SURFACE($,#360,4.25);
#328=CYLINDRICAL_SURFACE($,#363,4.25);
#329=CYLINDRICAL_SURFACE($,#366,4.);
#330=CYLINDRICAL_SURFACE($,#373,4.);
#331=CYLINDRICAL_SURFACE($,#376,4.);
#332=CYLINDRICAL_SURFACE($,#382,4.);
#333=CYLINDRICAL_SURFACE($,#385,7.);
#334=CYLINDRICAL_SURFACE($,#387,10.);
#335=CYLINDRICAL_SURFACE($,#396,5.);
#336=ADVANCED_FACE($,(#93,#81),#327,.F.);
#337=ADVANCED_FACE($,(#94,#82),#328,.F.);
#338=ADVANCED_FACE($,(#95),#329,.T.);
#339=ADVANCED_FACE($,(#96),#13,.T.);
#340=ADVANCED_FACE($,(#83,#84),#14,.F.);
#341=ADVANCED_FACE($,(#97),#330,.T.);
#342=ADVANCED_FACE($,(#98),#15,.T.);
#343=ADVANCED_FACE($,(#99),#331,.T.);
#344=ADVANCED_FACE($,(#100),#16,.T.);
#345=ADVANCED_FACE($,(#85,#86,#87),#17,.T.);
#346=ADVANCED_FACE($,(#101),#332,.T.);
#347=ADVANCED_FACE($,(#102),#18,.T.);
#348=ADVANCED_FACE($,(#103,#88),#333,.F.);
#349=ADVANCED_FACE($,(#104),#334,.T.);
#350=ADVANCED_FACE($,(#105),#19,.T.);
#351=ADVANCED_FACE($,(#106),#20,.T.);
#352=ADVANCED_FACE($,(#107),#21,.T.);
#353=ADVANCED_FACE($,(#89,#90,#91),#22,.F.);
#354=ADVANCED_FACE($,(#108),#335,.F.);
#355=ADVANCED_FACE($,(#109),#23,.T.);
#356=ADVANCED_FACE($,(#110,#92),#24,.T.);
#357=CLOSED_SHELL($,(#336,#337,#338,#339,#340,#341,#342,#343,#344,#345,
#346,#347,#348,#349,#350,#351,#352,#353,#354,#355,#356));
#358=MANIFOLD_SOLID_BREP('Volumenk\X\F6rper4',#357);
#359=AXIS2_PLACEMENT_3D('placement',#507,#399,#400);
#360=AXIS2_PLACEMENT_3D($,#508,#401,#402);
#361=AXIS2_PLACEMENT_3D($,#510,#403,#404);
#362=AXIS2_PLACEMENT_3D($,#512,#405,#406);
#363=AXIS2_PLACEMENT_3D($,#513,#407,#408);
#364=AXIS2_PLACEMENT_3D($,#515,#409,#410);
#365=AXIS2_PLACEMENT_3D($,#517,#411,#412);
#366=AXIS2_PLACEMENT_3D($,#518,#413,#414);
#367=AXIS2_PLACEMENT_3D($,#521,#415,#416);
#368=AXIS2_PLACEMENT_3D($,#525,#418,#419);
#369=AXIS2_PLACEMENT_3D($,#527,#421,#422);
#370=AXIS2_PLACEMENT_3D($,#533,#426,#427);
#371=AXIS2_PLACEMENT_3D($,#535,#428,#429);
#372=AXIS2_PLACEMENT_3D($,#539,#431,#432);
#373=AXIS2_PLACEMENT_3D($,#543,#435,#436);
#374=AXIS2_PLACEMENT_3D($,#546,#437,#438);
#375=AXIS2_PLACEMENT_3D($,#549,#441,#442);
#376=AXIS2_PLACEMENT_3D($,#553,#445,#446);
#377=AXIS2_PLACEMENT_3D($,#556,#447,#448);
#378=AXIS2_PLACEMENT_3D($,#560,#450,#451);
#379=AXIS2_PLACEMENT_3D($,#562,#453,#454);
#380=AXIS2_PLACEMENT_3D($,#568,#458,#459);
#381=AXIS2_PLACEMENT_3D($,#575,#463,#464);
#382=AXIS2_PLACEMENT_3D($,#576,#465,#466);
#383=AXIS2_PLACEMENT_3D($,#578,#467,#468);
#384=AXIS2_PLACEMENT_3D($,#580,#470,#471);
#385=AXIS2_PLACEMENT_3D($,#584,#474,#475);
#386=AXIS2_PLACEMENT_3D($,#586,#476,#477);
#387=AXIS2_PLACEMENT_3D($,#587,#478,#479);
#388=AXIS2_PLACEMENT_3D($,#590,#481,#482);
#389=AXIS2_PLACEMENT_3D($,#591,#483,#484);
#390=AXIS2_PLACEMENT_3D($,#592,#485,#486);
#391=AXIS2_PLACEMENT_3D($,#595,#489,#490);
#392=AXIS2_PLACEMENT_3D($,#596,#491,#492);
#393=AXIS2_PLACEMENT_3D($,#597,#493,#494);
#394=AXIS2_PLACEMENT_3D($,#598,#495,#496);
#395=AXIS2_PLACEMENT_3D($,#599,#497,#498);
#396=AXIS2_PLACEMENT_3D($,#600,#499,#500);
#397=AXIS2_PLACEMENT_3D($,#602,#502,#503);
#398=AXIS2_PLACEMENT_3D($,#604,#505,#506);
#399=DIRECTION('axis',(0.,0.,1.));
#400=DIRECTION('refdir',(1.,0.,0.));
#401=DIRECTION('center_axis',(1.,-6.0057504307323E-019,0.));
#402=DIRECTION('ref_axis',(0.,2.30309412405051E-034,-1.));
#403=DIRECTION('center_axis',(-1.,-6.00575043073221E-019,-3.83481490050809E-016));
#404=DIRECTION('ref_axis',(0.,2.30309412405051E-034,-1.));
#405=DIRECTION('center_axis',(1.,-6.00575043073221E-019,3.83481490050809E-016));
#406=DIRECTION('ref_axis',(0.,2.30309412405051E-034,-1.));
#407=DIRECTION('center_axis',(1.,-6.0057504307323E-019,0.));
#408=DIRECTION('ref_axis',(0.,2.30309412405051E-034,-1.));
#409=DIRECTION('center_axis',(-1.,-6.00575043073221E-019,-3.83481490050809E-016));
#410=DIRECTION('ref_axis',(0.,2.30309412405051E-034,-1.));
#411=DIRECTION('center_axis',(1.,-6.00575043073221E-019,3.83481490050809E-016));
#412=DIRECTION('ref_axis',(0.,2.30309412405051E-034,-1.));
#413=DIRECTION('center_axis',(0.,0.,1.));
#414=DIRECTION('ref_axis',(-0.707106781186547,-0.707106781186548,0.));
#415=DIRECTION('center_axis',(0.,0.,-1.));
#416=DIRECTION('ref_axis',(-0.707106781186547,-0.707106781186548,0.));
#417=DIRECTION($,(0.,0.,-1.));
#418=DIRECTION('center_axis',(0.,0.,1.));
#419=DIRECTION('ref_axis',(-0.707106781186547,-0.707106781186548,0.));
#420=DIRECTION($,(0.,0.,1.));
#421=DIRECTION('center_axis',(2.22044604925031E-016,-1.,0.));
#422=DIRECTION('ref_axis',(1.,3.5527136788005E-016,0.));
#423=DIRECTION($,(-1.,-2.22044604925031E-016,0.));
#424=DIRECTION($,(0.,0.,1.));
#425=DIRECTION($,(1.,2.22044604925031E-016,0.));
#426=DIRECTION('center_axis',(0.,0.,1.));
#427=DIRECTION('ref_axis',(1.,0.,0.));
#428=DIRECTION('center_axis',(0.,0.,1.));
#429=DIRECTION('ref_axis',(-1.,0.,0.));
#430=DIRECTION($,(1.12427648063307E-016,1.,0.));
#431=DIRECTION('center_axis',(0.,0.,1.));
#432=DIRECTION('ref_axis',(-0.707106781186548,0.707106781186547,0.));
#433=DIRECTION($,(1.,2.96059473233375E-016,0.));
#434=DIRECTION($,(0.,-1.,0.));
#435=DIRECTION('center_axis',(0.,0.,1.));
#436=DIRECTION('ref_axis',(-0.707106781186548,0.707106781186547,0.));
#437=DIRECTION('center_axis',(0.,0.,-1.));
#438=DIRECTION('ref_axis',(-0.707106781186548,0.707106781186547,0.));
#439=DIRECTION($,(0.,0.,-1.));
#440=DIRECTION($,(0.,0.,1.));
#441=DIRECTION('center_axis',(-2.96059473233375E-016,1.,0.));
#442=DIRECTION('ref_axis',(-1.,-3.5527136788005E-016,0.));
#443=DIRECTION($,(-1.,-2.96059473233375E-016,0.));
#444=DIRECTION($,(0.,0.,-1.));
#445=DIRECTION('center_axis',(1.,0.,3.82856869892695E-016));
#446=DIRECTION('ref_axis',(0.,0.707106781186546,0.707106781186549));
#447=DIRECTION('center_axis',(-1.,-6.00575043073221E-019,-3.83481490050809E-016));
#448=DIRECTION('ref_axis',(0.,0.707106781186546,0.707106781186549));
#449=DIRECTION($,(-1.,0.,-3.82856869892695E-016));
#450=DIRECTION('center_axis',(1.,-6.00575043073221E-019,3.83481490050809E-016));
#451=DIRECTION('ref_axis',(0.,0.707106781186546,0.707106781186549));
#452=DIRECTION($,(1.,0.,3.82856869892695E-016));
#453=DIRECTION('center_axis',(-3.82856869892695E-016,0.,1.));
#454=DIRECTION('ref_axis',(1.,0.,0.));
#455=DIRECTION($,(0.,1.,0.));
#456=DIRECTION($,(-1.,0.,-3.82856869892695E-016));
#457=DIRECTION($,(0.,1.,0.));
#458=DIRECTION('center_axis',(-1.,6.00575043073221E-019,-3.83481490050809E-016));
#459=DIRECTION('ref_axis',(-3.5527136788005E-016,0.,1.));
#460=DIRECTION($,(4.44089209850063E-016,0.,-1.));
#461=DIRECTION($,(-6.00575043073221E-019,-1.,-2.29934281126684E-034));
#462=DIRECTION($,(4.44089209850063E-016,0.,-1.));
#463=DIRECTION('center_axis',(1.,-6.00575043073221E-019,3.83481490050809E-016));
#464=DIRECTION('ref_axis',(0.,-0.707106781186546,0.707106781186549));
#465=DIRECTION('center_axis',(1.,0.,3.82856869892695E-016));
#466=DIRECTION('ref_axis',(0.,-0.707106781186546,0.707106781186549));
#467=DIRECTION('center_axis',(-1.,-6.00575043073221E-019,-3.83481490050809E-016));
#468=DIRECTION('ref_axis',(0.,-0.707106781186546,0.707106781186549));
#469=DIRECTION($,(1.,0.,3.82856869892695E-016));
#470=DIRECTION('center_axis',(0.,-1.,0.));
#471=DIRECTION('ref_axis',(1.,0.,3.5527136788005E-016));
#472=DIRECTION($,(1.,0.,3.82856869892695E-016));
#473=DIRECTION($,(-3.82856869892695E-016,0.,1.));
#474=DIRECTION('center_axis',(0.,0.,-1.));
#475=DIRECTION('ref_axis',(-1.,0.,0.));
#476=DIRECTION('center_axis',(0.,0.,-1.));
#477=DIRECTION('ref_axis',(-1.,0.,0.));
#478=DIRECTION('center_axis',(0.,-1.,0.));
#479=DIRECTION('ref_axis',(0.,0.,-1.));
#480=DIRECTION($,(-6.00575043073221E-019,1.,-2.29934281126684E-034));
#481=DIRECTION('center_axis',(0.,-1.,0.));
#482=DIRECTION('ref_axis',(0.,0.,-1.));
#483=DIRECTION('center_axis',(0.,1.,0.));
#484=DIRECTION('ref_axis',(1.,0.,4.44089209850063E-016));
#485=DIRECTION('center_axis',(0.,1.,0.));
#486=DIRECTION('ref_axis',(-1.,0.,-3.5527136788005E-016));
#487=DIRECTION($,(4.44089209850063E-016,0.,-1.));
#488=DIRECTION($,(-1.,0.,-3.82856869892695E-016));
#489=DIRECTION('center_axis',(0.,-1.,0.));
#490=DIRECTION('ref_axis',(0.,0.,-1.));
#491=DIRECTION('center_axis',(0.,1.,0.));
#492=DIRECTION('ref_axis',(1.,0.,4.44089209850063E-016));
#493=DIRECTION('center_axis',(0.,1.,0.));
#494=DIRECTION('ref_axis',(0.,0.,1.));
#495=DIRECTION('center_axis',(0.,1.,0.));
#496=DIRECTION('ref_axis',(1.,0.,4.44089209850063E-016));
#497=DIRECTION('center_axis',(-1.,-6.00575043073221E-019,-3.83481490050809E-016));
#498=DIRECTION('ref_axis',(-3.5527136788005E-016,0.,1.));
#499=DIRECTION('center_axis',(0.,-1.,0.));
#500=DIRECTION('ref_axis',(0.,0.,-1.));
#501=DIRECTION($,(0.,1.,0.));
#502=DIRECTION('center_axis',(-1.,1.12427648063307E-016,0.));
#503=DIRECTION('ref_axis',(0.,-1.,0.));
#504=DIRECTION($,(-1.12427648063307E-016,-1.,0.));
#505=DIRECTION('center_axis',(0.,0.,1.));
#506=DIRECTION('ref_axis',(1.,0.,0.));
#507=CARTESIAN_POINT('',(0.,0.,0.));
#508=CARTESIAN_POINT('Origin',(24.9999999999999,2.22044604925031E-015,140.));
#509=CARTESIAN_POINT('',(30.,2.73791806367257E-015,144.25));
#510=CARTESIAN_POINT('Origin',(30.,2.21744317403495E-015,140.));
#511=CARTESIAN_POINT('',(24.9999999999999,2.74092093888794E-015,144.25));
#512=CARTESIAN_POINT('Origin',(25.,2.22044604925031E-015,140.));
#513=CARTESIAN_POINT('Origin',(25.,2.22044604925031E-015,100.));
#514=CARTESIAN_POINT('',(30.,2.73791806367257E-015,104.25));
#515=CARTESIAN_POINT('Origin',(30.,2.21744317403495E-015,100.));
#516=CARTESIAN_POINT('',(25.,2.74092093888794E-015,104.25));
#517=CARTESIAN_POINT('Origin',(25.,2.22044604925031E-015,100.));
#518=CARTESIAN_POINT('Origin',(-26.,-15.75,0.));
#519=CARTESIAN_POINT('',(-26.,-19.75,5.));
#520=CARTESIAN_POINT('',(-30.,-15.75,5.));
#521=CARTESIAN_POINT('Origin',(-26.,-15.75,5.));
#522=CARTESIAN_POINT('',(-30.,-15.75,0.));
#523=CARTESIAN_POINT($,(-30.,-15.75,0.));
#524=CARTESIAN_POINT('',(-26.,-19.75,0.));
#525=CARTESIAN_POINT('Origin',(-26.,-15.75,0.));
#526=CARTESIAN_POINT($,(-26.,-19.75,0.));
#527=CARTESIAN_POINT('Origin',(-30.,-19.75,0.));
#528=CARTESIAN_POINT('',(20.,-19.75,0.));
#529=CARTESIAN_POINT($,(30.,-19.75,0.));
#530=CARTESIAN_POINT('',(20.,-19.75,5.));
#531=CARTESIAN_POINT($,(20.,-19.75,2.5));
#532=CARTESIAN_POINT($,(30.,-19.75,5.));
#533=CARTESIAN_POINT('Origin',(-4.68636854615644E-015,-6.86218251401479E-016,
0.));
#534=CARTESIAN_POINT('',(-3.,8.57252759403147E-016,0.));
#535=CARTESIAN_POINT('Origin',(-10.,0.,0.));
#536=CARTESIAN_POINT('',(-30.,15.75,0.));
#537=CARTESIAN_POINT($,(-30.,-19.75,0.));
#538=CARTESIAN_POINT('',(-26.,19.75,0.));
#539=CARTESIAN_POINT('Origin',(-26.,15.75,0.));
#540=CARTESIAN_POINT('',(20.,19.75,0.));
#541=CARTESIAN_POINT($,(-30.,19.75,0.));
#542=CARTESIAN_POINT($,(20.,9.87500000000001,0.));
#543=CARTESIAN_POINT('Origin',(-26.,15.75,0.));
#544=CARTESIAN_POINT('',(-30.,15.75,5.));
#545=CARTESIAN_POINT('',(-26.,19.75,5.));
#546=CARTESIAN_POINT('Origin',(-26.,15.75,5.));
#547=CARTESIAN_POINT($,(-26.,19.75,0.));
#548=CARTESIAN_POINT($,(-30.,15.75,0.));
#549=CARTESIAN_POINT('Origin',(30.,19.75,0.));
#550=CARTESIAN_POINT('',(20.,19.75,5.));
#551=CARTESIAN_POINT($,(-30.,19.75,5.));
#552=CARTESIAN_POINT($,(20.,19.75,2.5));
#553=CARTESIAN_POINT('Origin',(24.9999999999999,15.75,156.));
#554=CARTESIAN_POINT('',(29.9999999999999,15.75,160.));
#555=CARTESIAN_POINT('',(29.9999999999999,19.75,156.));
#556=CARTESIAN_POINT('Origin',(29.9999999999999,15.75,156.));
#557=CARTESIAN_POINT('',(24.9999999999999,19.75,156.));
#558=CARTESIAN_POINT($,(24.9999999999999,19.75,156.));
#559=CARTESIAN_POINT('',(24.9999999999999,15.75,160.));
#560=CARTESIAN_POINT('Origin',(24.9999999999999,15.75,156.));
#561=CARTESIAN_POINT($,(24.9999999999999,15.75,160.));
#562=CARTESIAN_POINT('Origin',(24.9999999999999,-19.75,160.));
#563=CARTESIAN_POINT('',(24.9999999999999,-15.75,160.));
#564=CARTESIAN_POINT($,(24.9999999999999,-19.75,160.));
#565=CARTESIAN_POINT('',(29.9999999999999,-15.75,160.));
#566=CARTESIAN_POINT($,(24.9999999999999,-15.75,160.));
#567=CARTESIAN_POINT($,(29.9999999999999,-19.75,160.));
#568=CARTESIAN_POINT('Origin',(25.,0.,79.3451332235384));
#569=CARTESIAN_POINT('',(25.,19.75,10.));
#570=CARTESIAN_POINT($,(25.,19.75,-12.6194671058465));
#571=CARTESIAN_POINT('',(25.,-19.75,10.));
#572=CARTESIAN_POINT($,(25.,6.60632547380543E-019,10.));
#573=CARTESIAN_POINT('',(24.9999999999999,-19.75,156.));
#574=CARTESIAN_POINT($,(25.,-19.75,-12.6194671058465));
#575=CARTESIAN_POINT('Origin',(24.9999999999999,-15.75,156.));
#576=CARTESIAN_POINT('Origin',(24.9999999999999,-15.75,156.));
#577=CARTESIAN_POINT('',(29.9999999999999,-19.75,156.));
#578=CARTESIAN_POINT('Origin',(29.9999999999999,-15.75,156.));
#579=CARTESIAN_POINT($,(24.9999999999999,-19.75,156.));
#580=CARTESIAN_POINT('Origin',(25.,-19.75,10.));
#581=CARTESIAN_POINT('',(30.,-19.75,10.));
#582=CARTESIAN_POINT($,(26.1,-19.75,10.));
#583=CARTESIAN_POINT($,(30.,-19.75,9.99999999999999));
#584=CARTESIAN_POINT('Origin',(-10.,0.,5.));
#585=CARTESIAN_POINT('',(-3.,8.57252759403147E-016,5.));
#586=CARTESIAN_POINT('Origin',(-10.,0.,5.));
#587=CARTESIAN_POINT('Origin',(20.,0.,10.));
#588=CARTESIAN_POINT('',(30.,19.75,10.));
#589=CARTESIAN_POINT($,(30.,8.4080506030251E-019,10.));
#590=CARTESIAN_POINT('Origin',(20.,-19.75,10.));
#591=CARTESIAN_POINT('Origin',(20.,19.75,10.));
#592=CARTESIAN_POINT('Origin',(25.,19.75,10.));
#593=CARTESIAN_POINT($,(30.,19.75,-12.6194671058465));
#594=CARTESIAN_POINT($,(26.1,19.75,10.));
#595=CARTESIAN_POINT('Origin',(25.,-19.75,10.));
#596=CARTESIAN_POINT('Origin',(20.,-19.75,10.));
#597=CARTESIAN_POINT('Origin',(30.,19.75,10.));
#598=CARTESIAN_POINT('Origin',(20.,19.75,10.));
#599=CARTESIAN_POINT('Origin',(30.,0.,79.3451332235384));
#600=CARTESIAN_POINT('Origin',(20.,0.,10.));
#601=CARTESIAN_POINT($,(20.,9.87500000000001,5.));
#602=CARTESIAN_POINT('Origin',(-30.,19.75,0.));
#603=CARTESIAN_POINT($,(-30.,-19.75,5.));
#604=CARTESIAN_POINT('Origin',(-4.44089209850063E-015,0.,5.));
#605=UNCERTAINTY_MEASURE_WITH_UNIT(LENGTH_MEASURE(0.01),#607,
'DISTANCE_ACCURACY_VALUE',
'Maximum model space distance between geometric entities at asserted c
onnectivities');
#606=(
GEOMETRIC_REPRESENTATION_CONTEXT(3)
GLOBAL_UNCERTAINTY_ASSIGNED_CONTEXT((#605))
GLOBAL_UNIT_ASSIGNED_CONTEXT((#607,#610,#608))
REPRESENTATION_CONTEXT('','3D')
);
#607=(
LENGTH_UNIT()
NAMED_UNIT(*)
SI_UNIT(.MILLI.,.METRE.)
);
#608=(
NAMED_UNIT(*)
SI_UNIT($,.STERADIAN.)
SOLID_ANGLE_UNIT()
);
#609=DIMENSIONAL_EXPONENTS(0.,0.,0.,0.,0.,0.,0.);
#610=(
CONVERSION_BASED_UNIT('degree',#612)
NAMED_UNIT(#609)
PLANE_ANGLE_UNIT()
);
#611=(
NAMED_UNIT(*)
PLANE_ANGLE_UNIT()
SI_UNIT($,.RADIAN.)
);
#612=PLANE_ANGLE_MEASURE_WITH_UNIT(PLANE_ANGLE_MEASURE(0.01745329252),#611);
#613=SHAPE_DEFINITION_REPRESENTATION(#614,#615);
#614=PRODUCT_DEFINITION_SHAPE('',$,#617);
#615=SHAPE_REPRESENTATION('',(#359),#606);
#616=PRODUCT_DEFINITION_CONTEXT('3D Mechanical Parts',#620,'design');
#617=PRODUCT_DEFINITION(
'14193_KriTec_Bodenwinkel_10_45_160x60x40_St_schwarz_pulverbeschichtet',
'14193_KriTec_Bodenwinkel_10_45_160x60x40_St_schwarz_pulverbeschichtet',
#618,#616);
#618=PRODUCT_DEFINITION_FORMATION('',$,#622);
#619=APPLICATION_PROTOCOL_DEFINITION('international standard',
'automotive_design',2009,#620);
#620=APPLICATION_CONTEXT(
'Core Data for Automotive Mechanical Design Process');
#621=PRODUCT_CONTEXT('3D Mechanical Parts',#620,'mechanical');
#622=PRODUCT(
'14193_KriTec_Bodenwinkel_10_45_160x60x40_St_schwarz_pulverbeschichtet',
'14193_KriTec_Bodenwinkel_10_45_160x60x40_St_schwarz_pulverbeschichtet',
$,(#621));
#623=PRESENTATION_STYLE_ASSIGNMENT((#624));
#624=SURFACE_STYLE_USAGE(.BOTH.,#625);
#625=SURFACE_SIDE_STYLE($,(#626));
#626=SURFACE_STYLE_FILL_AREA(#627);
#627=FILL_AREA_STYLE($,(#628));
#628=FILL_AREA_STYLE_COLOUR($,#629);
#629=COLOUR_RGB('',0.0196078431372549,0.0196078431372549,0.0196078431372549);
ENDSEC;
END-ISO-10303-21;
