ISO-10303-21;
HEADER;
/* Generated by software containing ST-Developer
 * from STEP Tools, Inc. (www.steptools.com) 
 */

FILE_DESCRIPTION(
/* description */ (''),
/* implementation_level */ '2;1');

FILE_NAME(
/* name */ 
'S:\\Bilder_neu\\14077_KriTec_Vario_Lasche_8_84x40_St_schwarz_pulverbe
schichtet\\Inventordateien\\14077_KriTec_Vario_Lasche_8_84x40_St_schwa
rz_pulverbeschichtet.stp',
/* time_stamp */ '2014-05-02T16:55:26+02:00',
/* author */ ('kostic'),
/* organization */ (''),
/* preprocessor_version */ 'ST-DEVELOPER v15.2',
/* originating_system */ 'Autodesk Inventor 2014',
/* authorisation */ '');

FILE_SCHEMA (('AUTOMOTIVE_DESIGN { 1 0 10303 214 3 1 1 }'));
ENDSEC;

DATA;
#10=SHAPE_REPRESENTATION_RELATIONSHIP('SRR','None',#525,#11);
#11=ADVANCED_BREP_SHAPE_REPRESENTATION($,(#306),#516);
#12=STYLED_ITEM($,(#533),#306);
#13=FACE_BOUND($,#47,.T.);
#14=FACE_BOUND($,#48,.T.);
#15=FACE_BOUND($,#49,.T.);
#16=FACE_BOUND($,#50,.T.);
#17=FACE_BOUND($,#56,.T.);
#18=FACE_BOUND($,#58,.T.);
#19=FACE_BOUND($,#66,.T.);
#20=FACE_BOUND($,#67,.T.);
#21=FACE_BOUND($,#68,.T.);
#22=PLANE($,#311);
#23=PLANE($,#312);
#24=PLANE($,#322);
#25=PLANE($,#331);
#26=PLANE($,#334);
#27=PLANE($,#337);
#28=PLANE($,#338);
#29=PLANE($,#339);
#30=FACE_OUTER_BOUND($,#45,.T.);
#31=FACE_OUTER_BOUND($,#46,.T.);
#32=FACE_OUTER_BOUND($,#51,.T.);
#33=FACE_OUTER_BOUND($,#52,.T.);
#34=FACE_OUTER_BOUND($,#53,.T.);
#35=FACE_OUTER_BOUND($,#54,.T.);
#36=FACE_OUTER_BOUND($,#55,.T.);
#37=FACE_OUTER_BOUND($,#57,.T.);
#38=FACE_OUTER_BOUND($,#59,.T.);
#39=FACE_OUTER_BOUND($,#60,.T.);
#40=FACE_OUTER_BOUND($,#61,.T.);
#41=FACE_OUTER_BOUND($,#62,.T.);
#42=FACE_OUTER_BOUND($,#63,.T.);
#43=FACE_OUTER_BOUND($,#64,.T.);
#44=FACE_OUTER_BOUND($,#65,.T.);
#45=EDGE_LOOP($,(#201,#202,#203,#204));
#46=EDGE_LOOP($,(#205,#206,#207,#208));
#47=EDGE_LOOP($,(#209));
#48=EDGE_LOOP($,(#210));
#49=EDGE_LOOP($,(#211,#212,#213,#214));
#50=EDGE_LOOP($,(#215,#216,#217,#218,#219,#220,#221,#222));
#51=EDGE_LOOP($,(#223,#224,#225,#226));
#52=EDGE_LOOP($,(#227,#228,#229,#230));
#53=EDGE_LOOP($,(#231,#232,#233,#234));
#54=EDGE_LOOP($,(#235,#236,#237,#238));
#55=EDGE_LOOP($,(#239));
#56=EDGE_LOOP($,(#240));
#57=EDGE_LOOP($,(#241));
#58=EDGE_LOOP($,(#242));
#59=EDGE_LOOP($,(#243,#244,#245,#246));
#60=EDGE_LOOP($,(#247,#248,#249,#250));
#61=EDGE_LOOP($,(#251,#252,#253,#254));
#62=EDGE_LOOP($,(#255,#256,#257,#258));
#63=EDGE_LOOP($,(#259,#260,#261,#262));
#64=EDGE_LOOP($,(#263,#264,#265,#266));
#65=EDGE_LOOP($,(#267,#268,#269,#270,#271,#272,#273,#274));
#66=EDGE_LOOP($,(#275));
#67=EDGE_LOOP($,(#276));
#68=EDGE_LOOP($,(#277,#278,#279,#280));
#69=LINE($,#436,#93);
#70=LINE($,#439,#94);
#71=LINE($,#442,#95);
#72=LINE($,#444,#96);
#73=LINE($,#445,#97);
#74=LINE($,#453,#98);
#75=LINE($,#457,#99);
#76=LINE($,#460,#100);
#77=LINE($,#464,#101);
#78=LINE($,#468,#102);
#79=LINE($,#474,#103);
#80=LINE($,#475,#104);
#81=LINE($,#478,#105);
#82=LINE($,#479,#106);
#83=LINE($,#483,#107);
#84=LINE($,#487,#108);
#85=LINE($,#496,#109);
#86=LINE($,#498,#110);
#87=LINE($,#499,#111);
#88=LINE($,#503,#112);
#89=LINE($,#506,#113);
#90=LINE($,#507,#114);
#91=LINE($,#511,#115);
#92=LINE($,#513,#116);
#93=VECTOR($,#346,4.);
#94=VECTOR($,#349,4.);
#95=VECTOR($,#352,76.);
#96=VECTOR($,#353,4.);
#97=VECTOR($,#354,76.);
#98=VECTOR($,#361,15.);
#99=VECTOR($,#364,15.);
#100=VECTOR($,#367,32.);
#101=VECTOR($,#370,76.);
#102=VECTOR($,#373,32.);
#103=VECTOR($,#380,4.);
#104=VECTOR($,#381,4.);
#105=VECTOR($,#384,76.);
#106=VECTOR($,#385,4.);
#107=VECTOR($,#390,4.);
#108=VECTOR($,#395,4.);
#109=VECTOR($,#406,4.);
#110=VECTOR($,#407,15.);
#111=VECTOR($,#408,4.);
#112=VECTOR($,#413,4.);
#113=VECTOR($,#416,15.);
#114=VECTOR($,#417,4.);
#115=VECTOR($,#424,32.);
#116=VECTOR($,#427,32.);
#117=CIRCLE($,#309,4.);
#118=CIRCLE($,#310,4.);
#119=CIRCLE($,#313,4.2);
#120=CIRCLE($,#314,4.2);
#121=CIRCLE($,#315,4.2);
#122=CIRCLE($,#316,4.2);
#123=CIRCLE($,#317,4.);
#124=CIRCLE($,#318,4.);
#125=CIRCLE($,#319,4.);
#126=CIRCLE($,#321,4.);
#127=CIRCLE($,#324,4.);
#128=CIRCLE($,#326,4.);
#129=CIRCLE($,#328,4.2);
#130=CIRCLE($,#330,4.2);
#131=CIRCLE($,#333,4.2);
#132=CIRCLE($,#336,4.2);
#133=VERTEX_POINT($,#432);
#134=VERTEX_POINT($,#433);
#135=VERTEX_POINT($,#435);
#136=VERTEX_POINT($,#437);
#137=VERTEX_POINT($,#441);
#138=VERTEX_POINT($,#443);
#139=VERTEX_POINT($,#447);
#140=VERTEX_POINT($,#449);
#141=VERTEX_POINT($,#451);
#142=VERTEX_POINT($,#452);
#143=VERTEX_POINT($,#454);
#144=VERTEX_POINT($,#456);
#145=VERTEX_POINT($,#459);
#146=VERTEX_POINT($,#461);
#147=VERTEX_POINT($,#463);
#148=VERTEX_POINT($,#465);
#149=VERTEX_POINT($,#467);
#150=VERTEX_POINT($,#471);
#151=VERTEX_POINT($,#472);
#152=VERTEX_POINT($,#477);
#153=VERTEX_POINT($,#481);
#154=VERTEX_POINT($,#485);
#155=VERTEX_POINT($,#489);
#156=VERTEX_POINT($,#492);
#157=VERTEX_POINT($,#495);
#158=VERTEX_POINT($,#497);
#159=VERTEX_POINT($,#501);
#160=VERTEX_POINT($,#505);
#161=EDGE_CURVE($,#133,#134,#117,.T.);
#162=EDGE_CURVE($,#134,#135,#69,.T.);
#163=EDGE_CURVE($,#135,#136,#118,.T.);
#164=EDGE_CURVE($,#136,#133,#70,.T.);
#165=EDGE_CURVE($,#136,#137,#71,.T.);
#166=EDGE_CURVE($,#138,#137,#72,.T.);
#167=EDGE_CURVE($,#138,#133,#73,.T.);
#168=EDGE_CURVE($,#139,#139,#119,.T.);
#169=EDGE_CURVE($,#140,#140,#120,.T.);
#170=EDGE_CURVE($,#141,#142,#74,.T.);
#171=EDGE_CURVE($,#142,#143,#121,.T.);
#172=EDGE_CURVE($,#143,#144,#75,.T.);
#173=EDGE_CURVE($,#144,#141,#122,.T.);
#174=EDGE_CURVE($,#145,#135,#76,.T.);
#175=EDGE_CURVE($,#146,#145,#123,.T.);
#176=EDGE_CURVE($,#147,#146,#77,.T.);
#177=EDGE_CURVE($,#148,#147,#124,.T.);
#178=EDGE_CURVE($,#149,#148,#78,.T.);
#179=EDGE_CURVE($,#137,#149,#125,.T.);
#180=EDGE_CURVE($,#150,#151,#126,.T.);
#181=EDGE_CURVE($,#151,#146,#79,.T.);
#182=EDGE_CURVE($,#145,#150,#80,.T.);
#183=EDGE_CURVE($,#151,#152,#81,.T.);
#184=EDGE_CURVE($,#147,#152,#82,.T.);
#185=EDGE_CURVE($,#152,#153,#127,.T.);
#186=EDGE_CURVE($,#153,#148,#83,.T.);
#187=EDGE_CURVE($,#154,#138,#128,.T.);
#188=EDGE_CURVE($,#149,#154,#84,.T.);
#189=EDGE_CURVE($,#155,#155,#129,.T.);
#190=EDGE_CURVE($,#156,#156,#130,.T.);
#191=EDGE_CURVE($,#157,#143,#85,.T.);
#192=EDGE_CURVE($,#158,#157,#86,.T.);
#193=EDGE_CURVE($,#158,#144,#87,.T.);
#194=EDGE_CURVE($,#159,#158,#131,.T.);
#195=EDGE_CURVE($,#159,#141,#88,.T.);
#196=EDGE_CURVE($,#160,#159,#89,.T.);
#197=EDGE_CURVE($,#160,#142,#90,.T.);
#198=EDGE_CURVE($,#157,#160,#132,.T.);
#199=EDGE_CURVE($,#153,#154,#91,.T.);
#200=EDGE_CURVE($,#134,#150,#92,.T.);
#201=ORIENTED_EDGE($,*,*,#161,.T.);
#202=ORIENTED_EDGE($,*,*,#162,.T.);
#203=ORIENTED_EDGE($,*,*,#163,.T.);
#204=ORIENTED_EDGE($,*,*,#164,.T.);
#205=ORIENTED_EDGE($,*,*,#164,.F.);
#206=ORIENTED_EDGE($,*,*,#165,.T.);
#207=ORIENTED_EDGE($,*,*,#166,.F.);
#208=ORIENTED_EDGE($,*,*,#167,.T.);
#209=ORIENTED_EDGE($,*,*,#168,.T.);
#210=ORIENTED_EDGE($,*,*,#169,.T.);
#211=ORIENTED_EDGE($,*,*,#170,.T.);
#212=ORIENTED_EDGE($,*,*,#171,.T.);
#213=ORIENTED_EDGE($,*,*,#172,.T.);
#214=ORIENTED_EDGE($,*,*,#173,.T.);
#215=ORIENTED_EDGE($,*,*,#163,.F.);
#216=ORIENTED_EDGE($,*,*,#174,.F.);
#217=ORIENTED_EDGE($,*,*,#175,.F.);
#218=ORIENTED_EDGE($,*,*,#176,.F.);
#219=ORIENTED_EDGE($,*,*,#177,.F.);
#220=ORIENTED_EDGE($,*,*,#178,.F.);
#221=ORIENTED_EDGE($,*,*,#179,.F.);
#222=ORIENTED_EDGE($,*,*,#165,.F.);
#223=ORIENTED_EDGE($,*,*,#180,.T.);
#224=ORIENTED_EDGE($,*,*,#181,.T.);
#225=ORIENTED_EDGE($,*,*,#175,.T.);
#226=ORIENTED_EDGE($,*,*,#182,.T.);
#227=ORIENTED_EDGE($,*,*,#181,.F.);
#228=ORIENTED_EDGE($,*,*,#183,.T.);
#229=ORIENTED_EDGE($,*,*,#184,.F.);
#230=ORIENTED_EDGE($,*,*,#176,.T.);
#231=ORIENTED_EDGE($,*,*,#185,.T.);
#232=ORIENTED_EDGE($,*,*,#186,.T.);
#233=ORIENTED_EDGE($,*,*,#177,.T.);
#234=ORIENTED_EDGE($,*,*,#184,.T.);
#235=ORIENTED_EDGE($,*,*,#187,.T.);
#236=ORIENTED_EDGE($,*,*,#166,.T.);
#237=ORIENTED_EDGE($,*,*,#179,.T.);
#238=ORIENTED_EDGE($,*,*,#188,.T.);
#239=ORIENTED_EDGE($,*,*,#168,.F.);
#240=ORIENTED_EDGE($,*,*,#189,.F.);
#241=ORIENTED_EDGE($,*,*,#169,.F.);
#242=ORIENTED_EDGE($,*,*,#190,.F.);
#243=ORIENTED_EDGE($,*,*,#172,.F.);
#244=ORIENTED_EDGE($,*,*,#191,.F.);
#245=ORIENTED_EDGE($,*,*,#192,.F.);
#246=ORIENTED_EDGE($,*,*,#193,.T.);
#247=ORIENTED_EDGE($,*,*,#173,.F.);
#248=ORIENTED_EDGE($,*,*,#193,.F.);
#249=ORIENTED_EDGE($,*,*,#194,.F.);
#250=ORIENTED_EDGE($,*,*,#195,.T.);
#251=ORIENTED_EDGE($,*,*,#170,.F.);
#252=ORIENTED_EDGE($,*,*,#195,.F.);
#253=ORIENTED_EDGE($,*,*,#196,.F.);
#254=ORIENTED_EDGE($,*,*,#197,.T.);
#255=ORIENTED_EDGE($,*,*,#171,.F.);
#256=ORIENTED_EDGE($,*,*,#197,.F.);
#257=ORIENTED_EDGE($,*,*,#198,.F.);
#258=ORIENTED_EDGE($,*,*,#191,.T.);
#259=ORIENTED_EDGE($,*,*,#186,.F.);
#260=ORIENTED_EDGE($,*,*,#199,.T.);
#261=ORIENTED_EDGE($,*,*,#188,.F.);
#262=ORIENTED_EDGE($,*,*,#178,.T.);
#263=ORIENTED_EDGE($,*,*,#162,.F.);
#264=ORIENTED_EDGE($,*,*,#200,.T.);
#265=ORIENTED_EDGE($,*,*,#182,.F.);
#266=ORIENTED_EDGE($,*,*,#174,.T.);
#267=ORIENTED_EDGE($,*,*,#161,.F.);
#268=ORIENTED_EDGE($,*,*,#167,.F.);
#269=ORIENTED_EDGE($,*,*,#187,.F.);
#270=ORIENTED_EDGE($,*,*,#199,.F.);
#271=ORIENTED_EDGE($,*,*,#185,.F.);
#272=ORIENTED_EDGE($,*,*,#183,.F.);
#273=ORIENTED_EDGE($,*,*,#180,.F.);
#274=ORIENTED_EDGE($,*,*,#200,.F.);
#275=ORIENTED_EDGE($,*,*,#189,.T.);
#276=ORIENTED_EDGE($,*,*,#190,.T.);
#277=ORIENTED_EDGE($,*,*,#196,.T.);
#278=ORIENTED_EDGE($,*,*,#194,.T.);
#279=ORIENTED_EDGE($,*,*,#192,.T.);
#280=ORIENTED_EDGE($,*,*,#198,.T.);
#281=CYLINDRICAL_SURFACE($,#308,4.);
#282=CYLINDRICAL_SURFACE($,#320,4.);
#283=CYLINDRICAL_SURFACE($,#323,4.);
#284=CYLINDRICAL_SURFACE($,#325,4.);
#285=CYLINDRICAL_SURFACE($,#327,4.2);
#286=CYLINDRICAL_SURFACE($,#329,4.2);
#287=CYLINDRICAL_SURFACE($,#332,4.2);
#288=CYLINDRICAL_SURFACE($,#335,4.2);
#289=ADVANCED_FACE($,(#30),#281,.T.);
#290=ADVANCED_FACE($,(#31),#22,.T.);
#291=ADVANCED_FACE($,(#13,#14,#15,#16),#23,.F.);
#292=ADVANCED_FACE($,(#32),#282,.T.);
#293=ADVANCED_FACE($,(#33),#24,.T.);
#294=ADVANCED_FACE($,(#34),#283,.T.);
#295=ADVANCED_FACE($,(#35),#284,.T.);
#296=ADVANCED_FACE($,(#36,#17),#285,.F.);
#297=ADVANCED_FACE($,(#37,#18),#286,.F.);
#298=ADVANCED_FACE($,(#38),#25,.F.);
#299=ADVANCED_FACE($,(#39),#287,.F.);
#300=ADVANCED_FACE($,(#40),#26,.F.);
#301=ADVANCED_FACE($,(#41),#288,.F.);
#302=ADVANCED_FACE($,(#42),#27,.T.);
#303=ADVANCED_FACE($,(#43),#28,.T.);
#304=ADVANCED_FACE($,(#44,#19,#20,#21),#29,.T.);
#305=CLOSED_SHELL($,(#289,#290,#291,#292,#293,#294,#295,#296,#297,#298,
#299,#300,#301,#302,#303,#304));
#306=MANIFOLD_SOLID_BREP('Volumenk\X\F6rper3',#305);
#307=AXIS2_PLACEMENT_3D('placement',#430,#340,#341);
#308=AXIS2_PLACEMENT_3D($,#431,#342,#343);
#309=AXIS2_PLACEMENT_3D($,#434,#344,#345);
#310=AXIS2_PLACEMENT_3D($,#438,#347,#348);
#311=AXIS2_PLACEMENT_3D($,#440,#350,#351);
#312=AXIS2_PLACEMENT_3D($,#446,#355,#356);
#313=AXIS2_PLACEMENT_3D($,#448,#357,#358);
#314=AXIS2_PLACEMENT_3D($,#450,#359,#360);
#315=AXIS2_PLACEMENT_3D($,#455,#362,#363);
#316=AXIS2_PLACEMENT_3D($,#458,#365,#366);
#317=AXIS2_PLACEMENT_3D($,#462,#368,#369);
#318=AXIS2_PLACEMENT_3D($,#466,#371,#372);
#319=AXIS2_PLACEMENT_3D($,#469,#374,#375);
#320=AXIS2_PLACEMENT_3D($,#470,#376,#377);
#321=AXIS2_PLACEMENT_3D($,#473,#378,#379);
#322=AXIS2_PLACEMENT_3D($,#476,#382,#383);
#323=AXIS2_PLACEMENT_3D($,#480,#386,#387);
#324=AXIS2_PLACEMENT_3D($,#482,#388,#389);
#325=AXIS2_PLACEMENT_3D($,#484,#391,#392);
#326=AXIS2_PLACEMENT_3D($,#486,#393,#394);
#327=AXIS2_PLACEMENT_3D($,#488,#396,#397);
#328=AXIS2_PLACEMENT_3D($,#490,#398,#399);
#329=AXIS2_PLACEMENT_3D($,#491,#400,#401);
#330=AXIS2_PLACEMENT_3D($,#493,#402,#403);
#331=AXIS2_PLACEMENT_3D($,#494,#404,#405);
#332=AXIS2_PLACEMENT_3D($,#500,#409,#410);
#333=AXIS2_PLACEMENT_3D($,#502,#411,#412);
#334=AXIS2_PLACEMENT_3D($,#504,#414,#415);
#335=AXIS2_PLACEMENT_3D($,#508,#418,#419);
#336=AXIS2_PLACEMENT_3D($,#509,#420,#421);
#337=AXIS2_PLACEMENT_3D($,#510,#422,#423);
#338=AXIS2_PLACEMENT_3D($,#512,#425,#426);
#339=AXIS2_PLACEMENT_3D($,#514,#428,#429);
#340=DIRECTION('axis',(0.,0.,1.));
#341=DIRECTION('refdir',(1.,0.,0.));
#342=DIRECTION('center_axis',(0.,0.,1.));
#343=DIRECTION('ref_axis',(0.70710678118655,0.707106781186545,0.));
#344=DIRECTION('center_axis',(0.,0.,-1.));
#345=DIRECTION('ref_axis',(0.70710678118655,0.707106781186545,0.));
#346=DIRECTION($,(0.,0.,-1.));
#347=DIRECTION('center_axis',(0.,0.,1.));
#348=DIRECTION('ref_axis',(0.70710678118655,0.707106781186545,0.));
#349=DIRECTION($,(0.,0.,1.));
#350=DIRECTION('center_axis',(-2.11471052309554E-016,1.,0.));
#351=DIRECTION('ref_axis',(0.,0.,1.));
#352=DIRECTION($,(-1.,-2.11471052309554E-016,0.));
#353=DIRECTION($,(0.,0.,-1.));
#354=DIRECTION($,(1.,2.11471052309554E-016,0.));
#355=DIRECTION('center_axis',(0.,0.,1.));
#356=DIRECTION('ref_axis',(1.,0.,0.));
#357=DIRECTION('center_axis',(0.,0.,1.));
#358=DIRECTION('ref_axis',(1.,0.,0.));
#359=DIRECTION('center_axis',(0.,0.,1.));
#360=DIRECTION('ref_axis',(1.,0.,0.));
#361=DIRECTION($,(1.,0.,0.));
#362=DIRECTION('center_axis',(0.,0.,1.));
#363=DIRECTION('ref_axis',(0.,-1.,0.));
#364=DIRECTION($,(-1.,-2.96059473233375E-016,0.));
#365=DIRECTION('center_axis',(0.,0.,1.));
#366=DIRECTION('ref_axis',(0.,1.,0.));
#367=DIRECTION($,(-4.44089209850062E-016,1.,0.));
#368=DIRECTION('center_axis',(0.,0.,1.));
#369=DIRECTION('ref_axis',(0.707106781186546,-0.707106781186549,0.));
#370=DIRECTION($,(1.,0.,0.));
#371=DIRECTION('center_axis',(0.,0.,1.));
#372=DIRECTION('ref_axis',(-0.707106781186548,-0.707106781186547,0.));
#373=DIRECTION($,(3.06161699786838E-016,-1.,0.));
#374=DIRECTION('center_axis',(0.,0.,1.));
#375=DIRECTION('ref_axis',(-0.707106781186548,0.707106781186547,0.));
#376=DIRECTION('center_axis',(0.,0.,1.));
#377=DIRECTION('ref_axis',(0.707106781186546,-0.707106781186549,0.));
#378=DIRECTION('center_axis',(0.,0.,-1.));
#379=DIRECTION('ref_axis',(0.707106781186546,-0.707106781186549,0.));
#380=DIRECTION($,(0.,0.,-1.));
#381=DIRECTION($,(0.,0.,1.));
#382=DIRECTION('center_axis',(0.,-1.,0.));
#383=DIRECTION('ref_axis',(0.,0.,-1.));
#384=DIRECTION($,(-1.,0.,0.));
#385=DIRECTION($,(0.,0.,1.));
#386=DIRECTION('center_axis',(0.,0.,1.));
#387=DIRECTION('ref_axis',(-0.707106781186548,-0.707106781186547,0.));
#388=DIRECTION('center_axis',(0.,0.,-1.));
#389=DIRECTION('ref_axis',(-0.707106781186548,-0.707106781186547,0.));
#390=DIRECTION($,(0.,0.,-1.));
#391=DIRECTION('center_axis',(0.,0.,1.));
#392=DIRECTION('ref_axis',(-0.707106781186548,0.707106781186547,0.));
#393=DIRECTION('center_axis',(0.,0.,-1.));
#394=DIRECTION('ref_axis',(-0.707106781186548,0.707106781186547,0.));
#395=DIRECTION($,(0.,0.,1.));
#396=DIRECTION('center_axis',(0.,0.,1.));
#397=DIRECTION('ref_axis',(1.,0.,0.));
#398=DIRECTION('center_axis',(0.,0.,-1.));
#399=DIRECTION('ref_axis',(1.,0.,0.));
#400=DIRECTION('center_axis',(0.,0.,1.));
#401=DIRECTION('ref_axis',(1.,0.,0.));
#402=DIRECTION('center_axis',(0.,0.,-1.));
#403=DIRECTION('ref_axis',(1.,0.,0.));
#404=DIRECTION('center_axis',(-2.96059473233375E-016,1.,0.));
#405=DIRECTION('ref_axis',(0.,0.,1.));
#406=DIRECTION($,(0.,0.,-1.));
#407=DIRECTION($,(1.,2.96059473233375E-016,0.));
#408=DIRECTION($,(0.,0.,-1.));
#409=DIRECTION('center_axis',(0.,0.,-1.));
#410=DIRECTION('ref_axis',(0.,1.,0.));
#411=DIRECTION('center_axis',(0.,0.,-1.));
#412=DIRECTION('ref_axis',(0.,1.,0.));
#413=DIRECTION($,(0.,0.,-1.));
#414=DIRECTION('center_axis',(0.,-1.,0.));
#415=DIRECTION('ref_axis',(0.,0.,-1.));
#416=DIRECTION($,(-1.,0.,0.));
#417=DIRECTION($,(0.,0.,-1.));
#418=DIRECTION('center_axis',(0.,0.,-1.));
#419=DIRECTION('ref_axis',(0.,-1.,0.));
#420=DIRECTION('center_axis',(0.,0.,-1.));
#421=DIRECTION('ref_axis',(0.,-1.,0.));
#422=DIRECTION('center_axis',(-1.,-3.06161699786838E-016,0.));
#423=DIRECTION('ref_axis',(0.,0.,1.));
#424=DIRECTION($,(-3.06161699786838E-016,1.,0.));
#425=DIRECTION('center_axis',(1.,4.44089209850062E-016,0.));
#426=DIRECTION('ref_axis',(0.,0.,-1.));
#427=DIRECTION($,(4.44089209850062E-016,-1.,0.));
#428=DIRECTION('center_axis',(0.,0.,1.));
#429=DIRECTION('ref_axis',(1.,0.,0.));
#430=CARTESIAN_POINT('',(0.,0.,0.));
#431=CARTESIAN_POINT('Origin',(80.,36.,0.));
#432=CARTESIAN_POINT('',(80.,40.,4.));
#433=CARTESIAN_POINT('',(84.,36.,4.));
#434=CARTESIAN_POINT('Origin',(80.,36.,4.));
#435=CARTESIAN_POINT('',(84.,36.,0.));
#436=CARTESIAN_POINT($,(84.,36.,0.));
#437=CARTESIAN_POINT('',(80.,40.,0.));
#438=CARTESIAN_POINT('Origin',(80.,36.,0.));
#439=CARTESIAN_POINT($,(80.,40.,0.));
#440=CARTESIAN_POINT('Origin',(-1.22464679914735E-014,40.,0.));
#441=CARTESIAN_POINT('',(3.99999999999999,40.,0.));
#442=CARTESIAN_POINT($,(84.,40.,0.));
#443=CARTESIAN_POINT('',(3.99999999999999,40.,4.));
#444=CARTESIAN_POINT($,(3.99999999999999,40.,0.));
#445=CARTESIAN_POINT($,(84.,40.,4.));
#446=CARTESIAN_POINT('Origin',(42.,20.,0.));
#447=CARTESIAN_POINT('',(59.8,7.50000000000001,0.));
#448=CARTESIAN_POINT('Origin',(64.,7.50000000000001,0.));
#449=CARTESIAN_POINT('',(59.8,32.5,0.));
#450=CARTESIAN_POINT('Origin',(64.,32.5,0.));
#451=CARTESIAN_POINT('',(15.,15.8,0.));
#452=CARTESIAN_POINT('',(30.,15.8,0.));
#453=CARTESIAN_POINT($,(28.5,15.8,0.));
#454=CARTESIAN_POINT('',(30.,24.2,0.));
#455=CARTESIAN_POINT('Origin',(30.,20.,0.));
#456=CARTESIAN_POINT('',(15.,24.2,0.));
#457=CARTESIAN_POINT($,(36.,24.2,0.));
#458=CARTESIAN_POINT('Origin',(15.,20.,0.));
#459=CARTESIAN_POINT('',(84.,4.,0.));
#460=CARTESIAN_POINT($,(84.,0.,0.));
#461=CARTESIAN_POINT('',(80.,0.,0.));
#462=CARTESIAN_POINT('Origin',(80.,4.,0.));
#463=CARTESIAN_POINT('',(4.,0.,0.));
#464=CARTESIAN_POINT($,(0.,0.,0.));
#465=CARTESIAN_POINT('',(-1.22464679914735E-015,4.,0.));
#466=CARTESIAN_POINT('Origin',(4.,4.,0.));
#467=CARTESIAN_POINT('',(-1.10218211923262E-014,36.,0.));
#468=CARTESIAN_POINT($,(-1.22464679914735E-014,40.,0.));
#469=CARTESIAN_POINT('Origin',(3.99999999999999,36.,0.));
#470=CARTESIAN_POINT('Origin',(80.,4.,0.));
#471=CARTESIAN_POINT('',(84.,4.,4.));
#472=CARTESIAN_POINT('',(80.,0.,4.));
#473=CARTESIAN_POINT('Origin',(80.,4.,4.));
#474=CARTESIAN_POINT($,(80.,0.,0.));
#475=CARTESIAN_POINT($,(84.,4.,0.));
#476=CARTESIAN_POINT('Origin',(84.,0.,0.));
#477=CARTESIAN_POINT('',(4.,0.,4.));
#478=CARTESIAN_POINT($,(0.,0.,4.));
#479=CARTESIAN_POINT($,(4.,0.,0.));
#480=CARTESIAN_POINT('Origin',(4.,4.,0.));
#481=CARTESIAN_POINT('',(-1.22464679914735E-015,4.,4.));
#482=CARTESIAN_POINT('Origin',(4.,4.,4.));
#483=CARTESIAN_POINT($,(-1.11022302462516E-015,4.,0.));
#484=CARTESIAN_POINT('Origin',(3.99999999999999,36.,0.));
#485=CARTESIAN_POINT('',(-1.10218211923262E-014,36.,4.));
#486=CARTESIAN_POINT('Origin',(3.99999999999999,36.,4.));
#487=CARTESIAN_POINT($,(-1.11022302462516E-014,36.,0.));
#488=CARTESIAN_POINT('Origin',(64.,7.50000000000001,-89.1235738145825));
#489=CARTESIAN_POINT('',(68.2,7.50000000000001,4.));
#490=CARTESIAN_POINT('Origin',(64.,7.50000000000001,4.));
#491=CARTESIAN_POINT('Origin',(64.,32.5,-89.1235738145825));
#492=CARTESIAN_POINT('',(68.2,32.5,4.));
#493=CARTESIAN_POINT('Origin',(64.,32.5,4.));
#494=CARTESIAN_POINT('Origin',(30.,24.2,4.));
#495=CARTESIAN_POINT('',(30.,24.2,4.));
#496=CARTESIAN_POINT($,(30.,24.2,4.));
#497=CARTESIAN_POINT('',(15.,24.2,4.));
#498=CARTESIAN_POINT($,(36.,24.2,4.));
#499=CARTESIAN_POINT($,(15.,24.2,4.));
#500=CARTESIAN_POINT('Origin',(15.,20.,4.));
#501=CARTESIAN_POINT('',(15.,15.8,4.));
#502=CARTESIAN_POINT('Origin',(15.,20.,4.));
#503=CARTESIAN_POINT($,(15.,15.8,4.));
#504=CARTESIAN_POINT('Origin',(15.,15.8,4.));
#505=CARTESIAN_POINT('',(30.,15.8,4.));
#506=CARTESIAN_POINT($,(28.5,15.8,4.));
#507=CARTESIAN_POINT($,(30.,15.8,4.));
#508=CARTESIAN_POINT('Origin',(30.,20.,4.));
#509=CARTESIAN_POINT('Origin',(30.,20.,4.));
#510=CARTESIAN_POINT('Origin',(0.,0.,0.));
#511=CARTESIAN_POINT($,(-1.22464679914735E-014,40.,4.));
#512=CARTESIAN_POINT('Origin',(84.,40.,0.));
#513=CARTESIAN_POINT($,(84.,0.,4.));
#514=CARTESIAN_POINT('Origin',(42.,20.,4.));
#515=UNCERTAINTY_MEASURE_WITH_UNIT(LENGTH_MEASURE(0.01),#517,
'DISTANCE_ACCURACY_VALUE',
'Maximum model space distance between geometric entities at asserted c
onnectivities');
#516=(
GEOMETRIC_REPRESENTATION_CONTEXT(3)
GLOBAL_UNCERTAINTY_ASSIGNED_CONTEXT((#515))
GLOBAL_UNIT_ASSIGNED_CONTEXT((#517,#520,#518))
REPRESENTATION_CONTEXT('','3D')
);
#517=(
LENGTH_UNIT()
NAMED_UNIT(*)
SI_UNIT(.MILLI.,.METRE.)
);
#518=(
NAMED_UNIT(*)
SI_UNIT($,.STERADIAN.)
SOLID_ANGLE_UNIT()
);
#519=DIMENSIONAL_EXPONENTS(0.,0.,0.,0.,0.,0.,0.);
#520=(
CONVERSION_BASED_UNIT('degree',#522)
NAMED_UNIT(#519)
PLANE_ANGLE_UNIT()
);
#521=(
NAMED_UNIT(*)
PLANE_ANGLE_UNIT()
SI_UNIT($,.RADIAN.)
);
#522=PLANE_ANGLE_MEASURE_WITH_UNIT(PLANE_ANGLE_MEASURE(0.01745329252),#521);
#523=SHAPE_DEFINITION_REPRESENTATION(#524,#525);
#524=PRODUCT_DEFINITION_SHAPE('',$,#527);
#525=SHAPE_REPRESENTATION('',(#307),#516);
#526=PRODUCT_DEFINITION_CONTEXT('3D Mechanical Parts',#530,'design');
#527=PRODUCT_DEFINITION(
'14077_KriTec_Vario_Lasche_8_84x40_St_schwarz_pulverbeschichtet',
'14077_KriTec_Vario_Lasche_8_84x40_St_schwarz_pulverbeschichtet',#528,#526);
#528=PRODUCT_DEFINITION_FORMATION('',$,#532);
#529=APPLICATION_PROTOCOL_DEFINITION('international standard',
'automotive_design',2009,#530);
#530=APPLICATION_CONTEXT(
'Core Data for Automotive Mechanical Design Process');
#531=PRODUCT_CONTEXT('3D Mechanical Parts',#530,'mechanical');
#532=PRODUCT(
'14077_KriTec_Vario_Lasche_8_84x40_St_schwarz_pulverbeschichtet',
'14077_KriTec_Vario_Lasche_8_84x40_St_schwarz_pulverbeschichtet',$,(#531));
#533=PRESENTATION_STYLE_ASSIGNMENT((#534));
#534=SURFACE_STYLE_USAGE(.BOTH.,#535);
#535=SURFACE_SIDE_STYLE($,(#536));
#536=SURFACE_STYLE_FILL_AREA(#537);
#537=FILL_AREA_STYLE($,(#538));
#538=FILL_AREA_STYLE_COLOUR($,#539);
#539=COLOUR_RGB('',0.501960784313725,0.501960784313725,0.501960784313725);
ENDSEC;
END-ISO-10303-21;
