ISO-10303-21;
HEADER;
/* Generated by software containing ST-Developer
 * from STEP Tools, Inc. (www.steptools.com) 
 */

FILE_DESCRIPTION(
/* description */ (''),
/* implementation_level */ '2;1');

FILE_NAME(
/* name */ 
'S:\\Bilder_neu\\14070_KriTec_Lasche_8_160x40x5_St\\Inventordateien\\1
4070_KriTec_Lasche_8_160x40x5_St.stp',
/* time_stamp */ '2014-06-05T13:20:40+02:00',
/* author */ ('kostic'),
/* organization */ (''),
/* preprocessor_version */ 'ST-DEVELOPER v15.2',
/* originating_system */ 'Autodesk Inventor 2014',
/* authorisation */ '');

FILE_SCHEMA (('AUTOMOTIVE_DESIGN { 1 0 10303 214 3 1 1 }'));
ENDSEC;

DATA;
#10=SHAPE_REPRESENTATION_RELATIONSHIP('SRR','None',#445,#11);
#11=ADVANCED_BREP_SHAPE_REPRESENTATION($,(#270),#436);
#12=STYLED_ITEM($,(#453),#270);
#13=CONICAL_SURFACE($,#283,6.875,45.);
#14=CONICAL_SURFACE($,#285,6.875,45.);
#15=CONICAL_SURFACE($,#287,6.875,45.);
#16=CONICAL_SURFACE($,#289,6.875,45.);
#17=FACE_BOUND($,#53,.T.);
#18=FACE_BOUND($,#54,.T.);
#19=FACE_BOUND($,#55,.T.);
#20=FACE_BOUND($,#56,.T.);
#21=FACE_BOUND($,#57,.T.);
#22=FACE_BOUND($,#63,.T.);
#23=FACE_BOUND($,#65,.T.);
#24=FACE_BOUND($,#67,.T.);
#25=FACE_BOUND($,#69,.T.);
#26=FACE_BOUND($,#73,.T.);
#27=FACE_BOUND($,#74,.T.);
#28=FACE_BOUND($,#75,.T.);
#29=FACE_BOUND($,#76,.T.);
#30=CIRCLE($,#275,4.5);
#31=CIRCLE($,#276,4.5);
#32=CIRCLE($,#277,4.5);
#33=CIRCLE($,#278,4.5);
#34=CIRCLE($,#284,9.5);
#35=CIRCLE($,#286,9.5);
#36=CIRCLE($,#288,9.5);
#37=CIRCLE($,#290,9.5);
#38=FACE_OUTER_BOUND($,#51,.T.);
#39=FACE_OUTER_BOUND($,#52,.T.);
#40=FACE_OUTER_BOUND($,#58,.T.);
#41=FACE_OUTER_BOUND($,#59,.T.);
#42=FACE_OUTER_BOUND($,#60,.T.);
#43=FACE_OUTER_BOUND($,#61,.T.);
#44=FACE_OUTER_BOUND($,#62,.T.);
#45=FACE_OUTER_BOUND($,#64,.T.);
#46=FACE_OUTER_BOUND($,#66,.T.);
#47=FACE_OUTER_BOUND($,#68,.T.);
#48=FACE_OUTER_BOUND($,#70,.T.);
#49=FACE_OUTER_BOUND($,#71,.T.);
#50=FACE_OUTER_BOUND($,#72,.T.);
#51=EDGE_LOOP($,(#181,#182,#183,#184));
#52=EDGE_LOOP($,(#185,#186,#187,#188));
#53=EDGE_LOOP($,(#189));
#54=EDGE_LOOP($,(#190));
#55=EDGE_LOOP($,(#191));
#56=EDGE_LOOP($,(#192));
#57=EDGE_LOOP($,(#193,#194,#195,#196,#197,#198,#199,#200));
#58=EDGE_LOOP($,(#201,#202,#203,#204));
#59=EDGE_LOOP($,(#205,#206,#207,#208));
#60=EDGE_LOOP($,(#209,#210,#211,#212));
#61=EDGE_LOOP($,(#213,#214,#215,#216));
#62=EDGE_LOOP($,(#217));
#63=EDGE_LOOP($,(#218));
#64=EDGE_LOOP($,(#219));
#65=EDGE_LOOP($,(#220));
#66=EDGE_LOOP($,(#221));
#67=EDGE_LOOP($,(#222));
#68=EDGE_LOOP($,(#223));
#69=EDGE_LOOP($,(#224));
#70=EDGE_LOOP($,(#225,#226,#227,#228));
#71=EDGE_LOOP($,(#229,#230,#231,#232));
#72=EDGE_LOOP($,(#233,#234,#235,#236,#237,#238,#239,#240));
#73=EDGE_LOOP($,(#241));
#74=EDGE_LOOP($,(#242));
#75=EDGE_LOOP($,(#243));
#76=EDGE_LOOP($,(#244));
#77=LINE($,#368,#101);
#78=LINE($,#370,#102);
#79=LINE($,#372,#103);
#80=LINE($,#373,#104);
#81=LINE($,#376,#105);
#82=LINE($,#378,#106);
#83=LINE($,#379,#107);
#84=LINE($,#390,#108);
#85=LINE($,#392,#109);
#86=LINE($,#394,#110);
#87=LINE($,#396,#111);
#88=LINE($,#398,#112);
#89=LINE($,#399,#113);
#90=LINE($,#403,#114);
#91=LINE($,#404,#115);
#92=LINE($,#405,#116);
#93=LINE($,#408,#117);
#94=LINE($,#409,#118);
#95=LINE($,#412,#119);
#96=LINE($,#413,#120);
#97=LINE($,#416,#121);
#98=LINE($,#417,#122);
#99=LINE($,#431,#123);
#100=LINE($,#433,#124);
#101=VECTOR($,#298,2.82842712474619);
#102=VECTOR($,#299,5.);
#103=VECTOR($,#300,2.82842712474619);
#104=VECTOR($,#301,5.);
#105=VECTOR($,#304,156.);
#106=VECTOR($,#305,5.);
#107=VECTOR($,#306,156.);
#108=VECTOR($,#317,36.);
#109=VECTOR($,#318,2.82842712474619);
#110=VECTOR($,#319,156.);
#111=VECTOR($,#320,2.82842712474619);
#112=VECTOR($,#321,36.);
#113=VECTOR($,#322,2.82842712474619);
#114=VECTOR($,#325,2.82842712474619);
#115=VECTOR($,#326,5.);
#116=VECTOR($,#327,5.);
#117=VECTOR($,#330,156.);
#118=VECTOR($,#331,5.);
#119=VECTOR($,#334,2.82842712474619);
#120=VECTOR($,#335,5.);
#121=VECTOR($,#338,2.82842712474619);
#122=VECTOR($,#339,5.);
#123=VECTOR($,#358,36.);
#124=VECTOR($,#361,36.);
#125=VERTEX_POINT($,#366);
#126=VERTEX_POINT($,#367);
#127=VERTEX_POINT($,#369);
#128=VERTEX_POINT($,#371);
#129=VERTEX_POINT($,#375);
#130=VERTEX_POINT($,#377);
#131=VERTEX_POINT($,#381);
#132=VERTEX_POINT($,#383);
#133=VERTEX_POINT($,#385);
#134=VERTEX_POINT($,#387);
#135=VERTEX_POINT($,#389);
#136=VERTEX_POINT($,#391);
#137=VERTEX_POINT($,#393);
#138=VERTEX_POINT($,#395);
#139=VERTEX_POINT($,#397);
#140=VERTEX_POINT($,#401);
#141=VERTEX_POINT($,#402);
#142=VERTEX_POINT($,#407);
#143=VERTEX_POINT($,#411);
#144=VERTEX_POINT($,#415);
#145=VERTEX_POINT($,#419);
#146=VERTEX_POINT($,#422);
#147=VERTEX_POINT($,#425);
#148=VERTEX_POINT($,#428);
#149=EDGE_CURVE($,#125,#126,#77,.T.);
#150=EDGE_CURVE($,#126,#127,#78,.T.);
#151=EDGE_CURVE($,#127,#128,#79,.T.);
#152=EDGE_CURVE($,#128,#125,#80,.T.);
#153=EDGE_CURVE($,#129,#128,#81,.T.);
#154=EDGE_CURVE($,#130,#129,#82,.T.);
#155=EDGE_CURVE($,#130,#125,#83,.T.);
#156=EDGE_CURVE($,#131,#131,#30,.T.);
#157=EDGE_CURVE($,#132,#132,#31,.T.);
#158=EDGE_CURVE($,#133,#133,#32,.T.);
#159=EDGE_CURVE($,#134,#134,#33,.T.);
#160=EDGE_CURVE($,#127,#135,#84,.T.);
#161=EDGE_CURVE($,#136,#135,#85,.T.);
#162=EDGE_CURVE($,#136,#137,#86,.T.);
#163=EDGE_CURVE($,#138,#137,#87,.T.);
#164=EDGE_CURVE($,#138,#139,#88,.T.);
#165=EDGE_CURVE($,#129,#139,#89,.T.);
#166=EDGE_CURVE($,#140,#141,#90,.T.);
#167=EDGE_CURVE($,#141,#136,#91,.T.);
#168=EDGE_CURVE($,#135,#140,#92,.T.);
#169=EDGE_CURVE($,#141,#142,#93,.T.);
#170=EDGE_CURVE($,#137,#142,#94,.T.);
#171=EDGE_CURVE($,#142,#143,#95,.T.);
#172=EDGE_CURVE($,#143,#138,#96,.T.);
#173=EDGE_CURVE($,#144,#130,#97,.T.);
#174=EDGE_CURVE($,#139,#144,#98,.T.);
#175=EDGE_CURVE($,#145,#145,#34,.T.);
#176=EDGE_CURVE($,#146,#146,#35,.T.);
#177=EDGE_CURVE($,#147,#147,#36,.T.);
#178=EDGE_CURVE($,#148,#148,#37,.T.);
#179=EDGE_CURVE($,#143,#144,#99,.T.);
#180=EDGE_CURVE($,#126,#140,#100,.T.);
#181=ORIENTED_EDGE($,*,*,#149,.T.);
#182=ORIENTED_EDGE($,*,*,#150,.T.);
#183=ORIENTED_EDGE($,*,*,#151,.T.);
#184=ORIENTED_EDGE($,*,*,#152,.T.);
#185=ORIENTED_EDGE($,*,*,#152,.F.);
#186=ORIENTED_EDGE($,*,*,#153,.F.);
#187=ORIENTED_EDGE($,*,*,#154,.F.);
#188=ORIENTED_EDGE($,*,*,#155,.T.);
#189=ORIENTED_EDGE($,*,*,#156,.T.);
#190=ORIENTED_EDGE($,*,*,#157,.T.);
#191=ORIENTED_EDGE($,*,*,#158,.T.);
#192=ORIENTED_EDGE($,*,*,#159,.T.);
#193=ORIENTED_EDGE($,*,*,#151,.F.);
#194=ORIENTED_EDGE($,*,*,#160,.T.);
#195=ORIENTED_EDGE($,*,*,#161,.F.);
#196=ORIENTED_EDGE($,*,*,#162,.T.);
#197=ORIENTED_EDGE($,*,*,#163,.F.);
#198=ORIENTED_EDGE($,*,*,#164,.T.);
#199=ORIENTED_EDGE($,*,*,#165,.F.);
#200=ORIENTED_EDGE($,*,*,#153,.T.);
#201=ORIENTED_EDGE($,*,*,#166,.T.);
#202=ORIENTED_EDGE($,*,*,#167,.T.);
#203=ORIENTED_EDGE($,*,*,#161,.T.);
#204=ORIENTED_EDGE($,*,*,#168,.T.);
#205=ORIENTED_EDGE($,*,*,#167,.F.);
#206=ORIENTED_EDGE($,*,*,#169,.T.);
#207=ORIENTED_EDGE($,*,*,#170,.F.);
#208=ORIENTED_EDGE($,*,*,#162,.F.);
#209=ORIENTED_EDGE($,*,*,#171,.T.);
#210=ORIENTED_EDGE($,*,*,#172,.T.);
#211=ORIENTED_EDGE($,*,*,#163,.T.);
#212=ORIENTED_EDGE($,*,*,#170,.T.);
#213=ORIENTED_EDGE($,*,*,#173,.T.);
#214=ORIENTED_EDGE($,*,*,#154,.T.);
#215=ORIENTED_EDGE($,*,*,#165,.T.);
#216=ORIENTED_EDGE($,*,*,#174,.T.);
#217=ORIENTED_EDGE($,*,*,#156,.F.);
#218=ORIENTED_EDGE($,*,*,#175,.F.);
#219=ORIENTED_EDGE($,*,*,#157,.F.);
#220=ORIENTED_EDGE($,*,*,#176,.F.);
#221=ORIENTED_EDGE($,*,*,#158,.F.);
#222=ORIENTED_EDGE($,*,*,#177,.F.);
#223=ORIENTED_EDGE($,*,*,#159,.F.);
#224=ORIENTED_EDGE($,*,*,#178,.F.);
#225=ORIENTED_EDGE($,*,*,#172,.F.);
#226=ORIENTED_EDGE($,*,*,#179,.T.);
#227=ORIENTED_EDGE($,*,*,#174,.F.);
#228=ORIENTED_EDGE($,*,*,#164,.F.);
#229=ORIENTED_EDGE($,*,*,#150,.F.);
#230=ORIENTED_EDGE($,*,*,#180,.T.);
#231=ORIENTED_EDGE($,*,*,#168,.F.);
#232=ORIENTED_EDGE($,*,*,#160,.F.);
#233=ORIENTED_EDGE($,*,*,#149,.F.);
#234=ORIENTED_EDGE($,*,*,#155,.F.);
#235=ORIENTED_EDGE($,*,*,#173,.F.);
#236=ORIENTED_EDGE($,*,*,#179,.F.);
#237=ORIENTED_EDGE($,*,*,#171,.F.);
#238=ORIENTED_EDGE($,*,*,#169,.F.);
#239=ORIENTED_EDGE($,*,*,#166,.F.);
#240=ORIENTED_EDGE($,*,*,#180,.F.);
#241=ORIENTED_EDGE($,*,*,#175,.T.);
#242=ORIENTED_EDGE($,*,*,#176,.T.);
#243=ORIENTED_EDGE($,*,*,#177,.T.);
#244=ORIENTED_EDGE($,*,*,#178,.T.);
#245=PLANE($,#272);
#246=PLANE($,#273);
#247=PLANE($,#274);
#248=PLANE($,#279);
#249=PLANE($,#280);
#250=PLANE($,#281);
#251=PLANE($,#282);
#252=PLANE($,#291);
#253=PLANE($,#292);
#254=PLANE($,#293);
#255=ADVANCED_FACE($,(#38),#245,.T.);
#256=ADVANCED_FACE($,(#39),#246,.T.);
#257=ADVANCED_FACE($,(#17,#18,#19,#20,#21),#247,.F.);
#258=ADVANCED_FACE($,(#40),#248,.T.);
#259=ADVANCED_FACE($,(#41),#249,.T.);
#260=ADVANCED_FACE($,(#42),#250,.T.);
#261=ADVANCED_FACE($,(#43),#251,.T.);
#262=ADVANCED_FACE($,(#44,#22),#13,.F.);
#263=ADVANCED_FACE($,(#45,#23),#14,.F.);
#264=ADVANCED_FACE($,(#46,#24),#15,.F.);
#265=ADVANCED_FACE($,(#47,#25),#16,.F.);
#266=ADVANCED_FACE($,(#48),#252,.T.);
#267=ADVANCED_FACE($,(#49),#253,.T.);
#268=ADVANCED_FACE($,(#50,#26,#27,#28,#29),#254,.T.);
#269=CLOSED_SHELL($,(#255,#256,#257,#258,#259,#260,#261,#262,#263,#264,
#265,#266,#267,#268));
#270=MANIFOLD_SOLID_BREP('Volumenk\X\F6rper1',#269);
#271=AXIS2_PLACEMENT_3D('placement',#364,#294,#295);
#272=AXIS2_PLACEMENT_3D($,#365,#296,#297);
#273=AXIS2_PLACEMENT_3D($,#374,#302,#303);
#274=AXIS2_PLACEMENT_3D($,#380,#307,#308);
#275=AXIS2_PLACEMENT_3D($,#382,#309,#310);
#276=AXIS2_PLACEMENT_3D($,#384,#311,#312);
#277=AXIS2_PLACEMENT_3D($,#386,#313,#314);
#278=AXIS2_PLACEMENT_3D($,#388,#315,#316);
#279=AXIS2_PLACEMENT_3D($,#400,#323,#324);
#280=AXIS2_PLACEMENT_3D($,#406,#328,#329);
#281=AXIS2_PLACEMENT_3D($,#410,#332,#333);
#282=AXIS2_PLACEMENT_3D($,#414,#336,#337);
#283=AXIS2_PLACEMENT_3D($,#418,#340,#341);
#284=AXIS2_PLACEMENT_3D($,#420,#342,#343);
#285=AXIS2_PLACEMENT_3D($,#421,#344,#345);
#286=AXIS2_PLACEMENT_3D($,#423,#346,#347);
#287=AXIS2_PLACEMENT_3D($,#424,#348,#349);
#288=AXIS2_PLACEMENT_3D($,#426,#350,#351);
#289=AXIS2_PLACEMENT_3D($,#427,#352,#353);
#290=AXIS2_PLACEMENT_3D($,#429,#354,#355);
#291=AXIS2_PLACEMENT_3D($,#430,#356,#357);
#292=AXIS2_PLACEMENT_3D($,#432,#359,#360);
#293=AXIS2_PLACEMENT_3D($,#434,#362,#363);
#294=DIRECTION('axis',(0.,0.,1.));
#295=DIRECTION('refdir',(1.,0.,0.));
#296=DIRECTION('center_axis',(-0.707106781186546,0.707106781186549,0.));
#297=DIRECTION('ref_axis',(0.,0.,1.));
#298=DIRECTION($,(0.707106781186549,0.707106781186546,0.));
#299=DIRECTION($,(0.,0.,-1.));
#300=DIRECTION($,(-0.707106781186549,-0.707106781186546,0.));
#301=DIRECTION($,(0.,0.,1.));
#302=DIRECTION('center_axis',(-1.,-4.16333634234434E-017,0.));
#303=DIRECTION('ref_axis',(0.,0.,1.));
#304=DIRECTION($,(-4.16333634234434E-017,1.,0.));
#305=DIRECTION($,(0.,0.,-1.));
#306=DIRECTION($,(-4.16333634234434E-017,1.,0.));
#307=DIRECTION('center_axis',(0.,0.,1.));
#308=DIRECTION('ref_axis',(1.,0.,0.));
#309=DIRECTION('center_axis',(0.,0.,1.));
#310=DIRECTION('ref_axis',(1.,0.,0.));
#311=DIRECTION('center_axis',(0.,0.,1.));
#312=DIRECTION('ref_axis',(1.,0.,0.));
#313=DIRECTION('center_axis',(0.,0.,1.));
#314=DIRECTION('ref_axis',(1.,0.,0.));
#315=DIRECTION('center_axis',(0.,0.,1.));
#316=DIRECTION('ref_axis',(1.,0.,0.));
#317=DIRECTION($,(1.,0.,0.));
#318=DIRECTION($,(-0.707106781186548,0.707106781186548,0.));
#319=DIRECTION($,(-2.77555756156289E-017,-1.,0.));
#320=DIRECTION($,(0.707106781186549,0.707106781186546,0.));
#321=DIRECTION($,(-1.,0.,0.));
#322=DIRECTION($,(0.707106781186547,-0.707106781186548,0.));
#323=DIRECTION('center_axis',(0.707106781186548,0.707106781186548,0.));
#324=DIRECTION('ref_axis',(0.,0.,-1.));
#325=DIRECTION($,(0.707106781186548,-0.707106781186548,0.));
#326=DIRECTION($,(0.,0.,-1.));
#327=DIRECTION($,(0.,0.,1.));
#328=DIRECTION('center_axis',(1.,-2.77555756156289E-017,0.));
#329=DIRECTION('ref_axis',(0.,0.,-1.));
#330=DIRECTION($,(-2.77555756156289E-017,-1.,0.));
#331=DIRECTION($,(0.,0.,1.));
#332=DIRECTION('center_axis',(0.707106781186546,-0.707106781186549,0.));
#333=DIRECTION('ref_axis',(0.,0.,-1.));
#334=DIRECTION($,(-0.707106781186549,-0.707106781186546,0.));
#335=DIRECTION($,(0.,0.,-1.));
#336=DIRECTION('center_axis',(-0.707106781186548,-0.707106781186547,0.));
#337=DIRECTION('ref_axis',(0.,0.,1.));
#338=DIRECTION($,(-0.707106781186547,0.707106781186548,0.));
#339=DIRECTION($,(0.,0.,1.));
#340=DIRECTION('center_axis',(0.,0.,1.));
#341=DIRECTION('ref_axis',(1.,0.,0.));
#342=DIRECTION('center_axis',(0.,0.,-1.));
#343=DIRECTION('ref_axis',(1.,0.,0.));
#344=DIRECTION('center_axis',(0.,0.,1.));
#345=DIRECTION('ref_axis',(1.,0.,0.));
#346=DIRECTION('center_axis',(0.,0.,-1.));
#347=DIRECTION('ref_axis',(1.,0.,0.));
#348=DIRECTION('center_axis',(0.,0.,1.));
#349=DIRECTION('ref_axis',(1.,0.,0.));
#350=DIRECTION('center_axis',(0.,0.,-1.));
#351=DIRECTION('ref_axis',(1.,0.,0.));
#352=DIRECTION('center_axis',(0.,0.,1.));
#353=DIRECTION('ref_axis',(1.,0.,0.));
#354=DIRECTION('center_axis',(0.,0.,-1.));
#355=DIRECTION('ref_axis',(1.,0.,0.));
#356=DIRECTION('center_axis',(0.,-1.,0.));
#357=DIRECTION('ref_axis',(0.,0.,-1.));
#358=DIRECTION($,(-1.,0.,0.));
#359=DIRECTION('center_axis',(0.,1.,0.));
#360=DIRECTION('ref_axis',(0.,0.,1.));
#361=DIRECTION($,(1.,0.,0.));
#362=DIRECTION('center_axis',(0.,0.,1.));
#363=DIRECTION('ref_axis',(1.,0.,0.));
#364=CARTESIAN_POINT('',(0.,0.,0.));
#365=CARTESIAN_POINT('Origin',(-19.,79.,0.));
#366=CARTESIAN_POINT('',(-20.,78.,5.));
#367=CARTESIAN_POINT('',(-18.,80.,5.));
#368=CARTESIAN_POINT($,(-34.,64.0000000000001,5.));
#369=CARTESIAN_POINT('',(-18.,80.,0.));
#370=CARTESIAN_POINT($,(-18.,80.,0.));
#371=CARTESIAN_POINT('',(-20.,78.,0.));
#372=CARTESIAN_POINT($,(-34.,64.0000000000001,0.));
#373=CARTESIAN_POINT($,(-20.,78.,0.));
#374=CARTESIAN_POINT('Origin',(-20.,-80.,0.));
#375=CARTESIAN_POINT('',(-20.,-78.,0.));
#376=CARTESIAN_POINT($,(-20.,-80.,0.));
#377=CARTESIAN_POINT('',(-20.,-78.,5.));
#378=CARTESIAN_POINT($,(-20.,-78.,0.));
#379=CARTESIAN_POINT($,(-20.,-80.,5.));
#380=CARTESIAN_POINT('Origin',(1.11022302462516E-015,1.93784382480027E-015,
0.));
#381=CARTESIAN_POINT('',(-4.5,-60.,0.));
#382=CARTESIAN_POINT('Origin',(0.,-60.,0.));
#383=CARTESIAN_POINT('',(-4.5,-20.,0.));
#384=CARTESIAN_POINT('Origin',(0.,-20.,0.));
#385=CARTESIAN_POINT('',(-4.5,20.,0.));
#386=CARTESIAN_POINT('Origin',(0.,20.,0.));
#387=CARTESIAN_POINT('',(-4.5,60.,0.));
#388=CARTESIAN_POINT('Origin',(0.,60.,0.));
#389=CARTESIAN_POINT('',(18.,80.,0.));
#390=CARTESIAN_POINT($,(-20.,80.,0.));
#391=CARTESIAN_POINT('',(20.,78.,0.));
#392=CARTESIAN_POINT($,(34.,64.,0.));
#393=CARTESIAN_POINT('',(20.,-78.,0.));
#394=CARTESIAN_POINT($,(20.,80.,0.));
#395=CARTESIAN_POINT('',(18.,-80.,0.));
#396=CARTESIAN_POINT($,(34.,-64.0000000000001,0.));
#397=CARTESIAN_POINT('',(-18.,-80.,0.));
#398=CARTESIAN_POINT($,(20.,-80.,0.));
#399=CARTESIAN_POINT($,(-34.,-64.,0.));
#400=CARTESIAN_POINT('Origin',(19.,79.,0.));
#401=CARTESIAN_POINT('',(18.,80.,5.));
#402=CARTESIAN_POINT('',(20.,78.,5.));
#403=CARTESIAN_POINT($,(34.,64.,5.));
#404=CARTESIAN_POINT($,(20.,78.,0.));
#405=CARTESIAN_POINT($,(18.,80.,0.));
#406=CARTESIAN_POINT('Origin',(20.,80.,0.));
#407=CARTESIAN_POINT('',(20.,-78.,5.));
#408=CARTESIAN_POINT($,(20.,80.,5.));
#409=CARTESIAN_POINT($,(20.,-78.,0.));
#410=CARTESIAN_POINT('Origin',(19.,-79.,0.));
#411=CARTESIAN_POINT('',(18.,-80.,5.));
#412=CARTESIAN_POINT($,(34.,-64.0000000000001,5.));
#413=CARTESIAN_POINT($,(18.,-80.,0.));
#414=CARTESIAN_POINT('Origin',(-19.,-79.,0.));
#415=CARTESIAN_POINT('',(-18.,-80.,5.));
#416=CARTESIAN_POINT($,(-34.,-64.,5.));
#417=CARTESIAN_POINT($,(-18.,-80.,0.));
#418=CARTESIAN_POINT('Origin',(0.,-60.,2.375));
#419=CARTESIAN_POINT('',(9.5,-60.,5.));
#420=CARTESIAN_POINT('Origin',(0.,-60.,5.));
#421=CARTESIAN_POINT('Origin',(0.,-20.,2.375));
#422=CARTESIAN_POINT('',(9.5,-20.,5.));
#423=CARTESIAN_POINT('Origin',(0.,-20.,5.));
#424=CARTESIAN_POINT('Origin',(0.,20.,2.375));
#425=CARTESIAN_POINT('',(9.5,20.,5.));
#426=CARTESIAN_POINT('Origin',(0.,20.,5.));
#427=CARTESIAN_POINT('Origin',(0.,60.,2.375));
#428=CARTESIAN_POINT('',(9.5,60.,5.));
#429=CARTESIAN_POINT('Origin',(0.,60.,5.));
#430=CARTESIAN_POINT('Origin',(20.,-80.,0.));
#431=CARTESIAN_POINT($,(20.,-80.,5.));
#432=CARTESIAN_POINT('Origin',(-20.,80.,0.));
#433=CARTESIAN_POINT($,(-20.,80.,5.));
#434=CARTESIAN_POINT('Origin',(1.11022302462516E-015,2.50304827370035E-015,
5.));
#435=UNCERTAINTY_MEASURE_WITH_UNIT(LENGTH_MEASURE(0.01),#437,
'DISTANCE_ACCURACY_VALUE',
'Maximum model space distance between geometric entities at asserted c
onnectivities');
#436=(
GEOMETRIC_REPRESENTATION_CONTEXT(3)
GLOBAL_UNCERTAINTY_ASSIGNED_CONTEXT((#435))
GLOBAL_UNIT_ASSIGNED_CONTEXT((#437,#440,#438))
REPRESENTATION_CONTEXT('','3D')
);
#437=(
LENGTH_UNIT()
NAMED_UNIT(*)
SI_UNIT(.MILLI.,.METRE.)
);
#438=(
NAMED_UNIT(*)
SI_UNIT($,.STERADIAN.)
SOLID_ANGLE_UNIT()
);
#439=DIMENSIONAL_EXPONENTS(0.,0.,0.,0.,0.,0.,0.);
#440=(
CONVERSION_BASED_UNIT('degree',#442)
NAMED_UNIT(#439)
PLANE_ANGLE_UNIT()
);
#441=(
NAMED_UNIT(*)
PLANE_ANGLE_UNIT()
SI_UNIT($,.RADIAN.)
);
#442=PLANE_ANGLE_MEASURE_WITH_UNIT(PLANE_ANGLE_MEASURE(0.01745329252),#441);
#443=SHAPE_DEFINITION_REPRESENTATION(#444,#445);
#444=PRODUCT_DEFINITION_SHAPE('',$,#447);
#445=SHAPE_REPRESENTATION('',(#271),#436);
#446=PRODUCT_DEFINITION_CONTEXT('3D Mechanical Parts',#450,'design');
#447=PRODUCT_DEFINITION('14070_KriTec_Lasche_8_160x40x5_St',
'14070_KriTec_Lasche_8_160x40x5_St',#448,#446);
#448=PRODUCT_DEFINITION_FORMATION('',$,#452);
#449=APPLICATION_PROTOCOL_DEFINITION('international standard',
'automotive_design',2009,#450);
#450=APPLICATION_CONTEXT(
'Core Data for Automotive Mechanical Design Process');
#451=PRODUCT_CONTEXT('3D Mechanical Parts',#450,'mechanical');
#452=PRODUCT('14070_KriTec_Lasche_8_160x40x5_St',
'14070_KriTec_Lasche_8_160x40x5_St',$,(#451));
#453=PRESENTATION_STYLE_ASSIGNMENT((#454));
#454=SURFACE_STYLE_USAGE(.BOTH.,#455);
#455=SURFACE_SIDE_STYLE($,(#456));
#456=SURFACE_STYLE_FILL_AREA(#457);
#457=FILL_AREA_STYLE($,(#458));
#458=FILL_AREA_STYLE_COLOUR($,#459);
#459=COLOUR_RGB('',0.32156862745098,0.32156862745098,0.32156862745098);
ENDSEC;
END-ISO-10303-21;
