ISO-10303-21;
HEADER;
/* Generated by software containing ST-Developer
 * from STEP Tools, Inc. (www.steptools.com) 
 */

FILE_DESCRIPTION(
/* description */ ('KriTec Winkel 8 Al 40x40x36x6 Softline'),
/* implementation_level */ '2;1');

FILE_NAME(
/* name */ 
'S:\\CAD\\Projekte 2018\\Teile Bearbeitungsordner\\Winkel Al Softline\\
14048_KriTec_Winkel_8_Al_40x40x36x6_Softline\\Inventordateien\\14048_K
riTec_Winkel_8_Al_40x40x36x6_Softline.stp',
/* time_stamp */ '2019-06-13T16:06:00+02:00',
/* author */ ('jendrek'),
/* organization */ (''),
/* preprocessor_version */ 'ST-DEVELOPER v17',
/* originating_system */ 'Autodesk Inventor 2018',
/* authorisation */ '');

FILE_SCHEMA (('AUTOMOTIVE_DESIGN { 1 0 10303 214 3 1 1 }'));
ENDSEC;

DATA;
#10=MECHANICAL_DESIGN_GEOMETRIC_PRESENTATION_REPRESENTATION('',(#13),#618);
#11=SHAPE_REPRESENTATION_RELATIONSHIP('SRR','None',#625,#12);
#12=ADVANCED_BREP_SHAPE_REPRESENTATION('',(#14),#617);
#13=STYLED_ITEM('',(#635),#14);
#14=MANIFOLD_SOLID_BREP('Volumenk\X\F6rper1',#348);
#15=FACE_BOUND('',#57,.T.);
#16=FACE_BOUND('',#59,.T.);
#17=FACE_BOUND('',#62,.T.);
#18=FACE_BOUND('',#64,.T.);
#19=PLANE('',#390);
#20=PLANE('',#391);
#21=PLANE('',#392);
#22=PLANE('',#393);
#23=PLANE('',#394);
#24=PLANE('',#395);
#25=PLANE('',#396);
#26=PLANE('',#400);
#27=CYLINDRICAL_SURFACE('',#388,4.5);
#28=CYLINDRICAL_SURFACE('',#389,4.5);
#29=CYLINDRICAL_SURFACE('',#404,4.);
#30=CYLINDRICAL_SURFACE('',#405,4.);
#31=CYLINDRICAL_SURFACE('',#406,4.);
#32=FACE_OUTER_BOUND('',#49,.T.);
#33=FACE_OUTER_BOUND('',#50,.T.);
#34=FACE_OUTER_BOUND('',#51,.T.);
#35=FACE_OUTER_BOUND('',#52,.T.);
#36=FACE_OUTER_BOUND('',#53,.T.);
#37=FACE_OUTER_BOUND('',#54,.T.);
#38=FACE_OUTER_BOUND('',#55,.T.);
#39=FACE_OUTER_BOUND('',#56,.T.);
#40=FACE_OUTER_BOUND('',#58,.T.);
#41=FACE_OUTER_BOUND('',#60,.T.);
#42=FACE_OUTER_BOUND('',#61,.T.);
#43=FACE_OUTER_BOUND('',#63,.T.);
#44=FACE_OUTER_BOUND('',#65,.T.);
#45=FACE_OUTER_BOUND('',#66,.T.);
#46=FACE_OUTER_BOUND('',#67,.T.);
#47=FACE_OUTER_BOUND('',#68,.T.);
#48=FACE_OUTER_BOUND('',#69,.T.);
#49=EDGE_LOOP('',(#229,#230,#231,#232,#233,#234));
#50=EDGE_LOOP('',(#235,#236,#237,#238,#239,#240));
#51=EDGE_LOOP('',(#241,#242,#243,#244,#245,#246));
#52=EDGE_LOOP('',(#247,#248,#249,#250,#251,#252));
#53=EDGE_LOOP('',(#253,#254,#255,#256,#257,#258));
#54=EDGE_LOOP('',(#259,#260,#261,#262,#263,#264));
#55=EDGE_LOOP('',(#265,#266,#267,#268));
#56=EDGE_LOOP('',(#269,#270,#271,#272));
#57=EDGE_LOOP('',(#273,#274));
#58=EDGE_LOOP('',(#275,#276,#277,#278));
#59=EDGE_LOOP('',(#279,#280));
#60=EDGE_LOOP('',(#281,#282,#283,#284));
#61=EDGE_LOOP('',(#285,#286,#287,#288));
#62=EDGE_LOOP('',(#289,#290));
#63=EDGE_LOOP('',(#291,#292,#293,#294));
#64=EDGE_LOOP('',(#295,#296));
#65=EDGE_LOOP('',(#297,#298,#299,#300,#301,#302,#303,#304,#305));
#66=EDGE_LOOP('',(#306,#307,#308,#309,#310,#311,#312,#313,#314));
#67=EDGE_LOOP('',(#315,#316,#317,#318));
#68=EDGE_LOOP('',(#319,#320,#321,#322));
#69=EDGE_LOOP('',(#323,#324,#325,#326));
#70=LINE('',#521,#97);
#71=LINE('',#531,#98);
#72=LINE('',#541,#99);
#73=LINE('',#551,#100);
#74=LINE('',#556,#101);
#75=LINE('',#558,#102);
#76=LINE('',#562,#103);
#77=LINE('',#564,#104);
#78=LINE('',#566,#105);
#79=LINE('',#567,#106);
#80=LINE('',#570,#107);
#81=LINE('',#572,#108);
#82=LINE('',#573,#109);
#83=LINE('',#576,#110);
#84=LINE('',#578,#111);
#85=LINE('',#579,#112);
#86=LINE('',#582,#113);
#87=LINE('',#584,#114);
#88=LINE('',#585,#115);
#89=LINE('',#589,#116);
#90=LINE('',#591,#117);
#91=LINE('',#593,#118);
#92=LINE('',#594,#119);
#93=LINE('',#598,#120);
#94=LINE('',#600,#121);
#95=LINE('',#602,#122);
#96=LINE('',#603,#123);
#97=VECTOR('',#415,4.5);
#98=VECTOR('',#426,4.5);
#99=VECTOR('',#437,5.);
#100=VECTOR('',#448,4.99999999999999);
#101=VECTOR('',#455,4.5);
#102=VECTOR('',#458,4.5);
#103=VECTOR('',#461,1000.);
#104=VECTOR('',#462,1000.);
#105=VECTOR('',#463,1000.);
#106=VECTOR('',#464,1000.);
#107=VECTOR('',#467,1000.);
#108=VECTOR('',#468,1000.);
#109=VECTOR('',#469,1000.);
#110=VECTOR('',#472,1000.);
#111=VECTOR('',#473,1000.);
#112=VECTOR('',#474,1000.);
#113=VECTOR('',#477,1000.);
#114=VECTOR('',#478,1000.);
#115=VECTOR('',#479,1000.);
#116=VECTOR('',#482,1000.);
#117=VECTOR('',#483,1000.);
#118=VECTOR('',#484,1000.);
#119=VECTOR('',#485,1000.);
#120=VECTOR('',#488,1000.);
#121=VECTOR('',#489,1000.);
#122=VECTOR('',#490,1000.);
#123=VECTOR('',#491,1000.);
#124=CIRCLE('',#369,4.5);
#125=CIRCLE('',#370,4.5);
#126=CIRCLE('',#371,5.);
#127=CIRCLE('',#372,5.);
#128=CIRCLE('',#374,4.5);
#129=CIRCLE('',#375,4.5);
#130=CIRCLE('',#376,5.);
#131=CIRCLE('',#377,5.);
#132=CIRCLE('',#379,4.5);
#133=CIRCLE('',#380,4.5);
#134=CIRCLE('',#381,5.);
#135=CIRCLE('',#382,5.);
#136=CIRCLE('',#384,4.5);
#137=CIRCLE('',#385,4.5);
#138=CIRCLE('',#386,4.99999999999999);
#139=CIRCLE('',#387,4.99999999999999);
#140=CIRCLE('',#397,4.);
#141=CIRCLE('',#398,4.);
#142=CIRCLE('',#399,4.);
#143=CIRCLE('',#401,4.);
#144=CIRCLE('',#402,4.);
#145=CIRCLE('',#403,4.);
#146=VERTEX_POINT('',#516);
#147=VERTEX_POINT('',#517);
#148=VERTEX_POINT('',#520);
#149=VERTEX_POINT('',#522);
#150=VERTEX_POINT('',#526);
#151=VERTEX_POINT('',#527);
#152=VERTEX_POINT('',#530);
#153=VERTEX_POINT('',#532);
#154=VERTEX_POINT('',#536);
#155=VERTEX_POINT('',#537);
#156=VERTEX_POINT('',#540);
#157=VERTEX_POINT('',#542);
#158=VERTEX_POINT('',#546);
#159=VERTEX_POINT('',#547);
#160=VERTEX_POINT('',#550);
#161=VERTEX_POINT('',#552);
#162=VERTEX_POINT('',#560);
#163=VERTEX_POINT('',#561);
#164=VERTEX_POINT('',#563);
#165=VERTEX_POINT('',#565);
#166=VERTEX_POINT('',#569);
#167=VERTEX_POINT('',#571);
#168=VERTEX_POINT('',#575);
#169=VERTEX_POINT('',#577);
#170=VERTEX_POINT('',#581);
#171=VERTEX_POINT('',#583);
#172=VERTEX_POINT('',#587);
#173=VERTEX_POINT('',#588);
#174=VERTEX_POINT('',#590);
#175=VERTEX_POINT('',#592);
#176=VERTEX_POINT('',#596);
#177=VERTEX_POINT('',#597);
#178=VERTEX_POINT('',#599);
#179=VERTEX_POINT('',#601);
#180=EDGE_CURVE('',#146,#147,#124,.T.);
#181=EDGE_CURVE('',#147,#146,#125,.T.);
#182=EDGE_CURVE('',#147,#148,#70,.T.);
#183=EDGE_CURVE('',#149,#148,#126,.T.);
#184=EDGE_CURVE('',#148,#149,#127,.T.);
#185=EDGE_CURVE('',#150,#151,#128,.T.);
#186=EDGE_CURVE('',#151,#150,#129,.T.);
#187=EDGE_CURVE('',#151,#152,#71,.T.);
#188=EDGE_CURVE('',#153,#152,#130,.T.);
#189=EDGE_CURVE('',#152,#153,#131,.T.);
#190=EDGE_CURVE('',#154,#155,#132,.T.);
#191=EDGE_CURVE('',#155,#154,#133,.T.);
#192=EDGE_CURVE('',#155,#156,#72,.T.);
#193=EDGE_CURVE('',#157,#156,#134,.T.);
#194=EDGE_CURVE('',#156,#157,#135,.T.);
#195=EDGE_CURVE('',#158,#159,#136,.T.);
#196=EDGE_CURVE('',#159,#158,#137,.T.);
#197=EDGE_CURVE('',#159,#160,#73,.T.);
#198=EDGE_CURVE('',#161,#160,#138,.T.);
#199=EDGE_CURVE('',#160,#161,#139,.T.);
#200=EDGE_CURVE('',#158,#147,#74,.T.);
#201=EDGE_CURVE('',#154,#151,#75,.T.);
#202=EDGE_CURVE('',#162,#163,#76,.T.);
#203=EDGE_CURVE('',#162,#164,#77,.T.);
#204=EDGE_CURVE('',#164,#165,#78,.T.);
#205=EDGE_CURVE('',#163,#165,#79,.T.);
#206=EDGE_CURVE('',#165,#166,#80,.T.);
#207=EDGE_CURVE('',#167,#166,#81,.T.);
#208=EDGE_CURVE('',#163,#167,#82,.T.);
#209=EDGE_CURVE('',#166,#168,#83,.T.);
#210=EDGE_CURVE('',#169,#168,#84,.T.);
#211=EDGE_CURVE('',#167,#169,#85,.T.);
#212=EDGE_CURVE('',#168,#170,#86,.T.);
#213=EDGE_CURVE('',#170,#171,#87,.T.);
#214=EDGE_CURVE('',#169,#171,#88,.T.);
#215=EDGE_CURVE('',#172,#173,#89,.T.);
#216=EDGE_CURVE('',#173,#174,#90,.T.);
#217=EDGE_CURVE('',#175,#174,#91,.T.);
#218=EDGE_CURVE('',#175,#172,#92,.T.);
#219=EDGE_CURVE('',#176,#177,#93,.T.);
#220=EDGE_CURVE('',#176,#178,#94,.T.);
#221=EDGE_CURVE('',#178,#179,#95,.T.);
#222=EDGE_CURVE('',#179,#177,#96,.T.);
#223=EDGE_CURVE('',#177,#162,#140,.T.);
#224=EDGE_CURVE('',#171,#175,#141,.T.);
#225=EDGE_CURVE('',#174,#176,#142,.T.);
#226=EDGE_CURVE('',#164,#179,#143,.T.);
#227=EDGE_CURVE('',#178,#173,#144,.T.);
#228=EDGE_CURVE('',#172,#170,#145,.T.);
#229=ORIENTED_EDGE('',*,*,#180,.F.);
#230=ORIENTED_EDGE('',*,*,#181,.F.);
#231=ORIENTED_EDGE('',*,*,#182,.T.);
#232=ORIENTED_EDGE('',*,*,#183,.F.);
#233=ORIENTED_EDGE('',*,*,#184,.F.);
#234=ORIENTED_EDGE('',*,*,#182,.F.);
#235=ORIENTED_EDGE('',*,*,#185,.F.);
#236=ORIENTED_EDGE('',*,*,#186,.F.);
#237=ORIENTED_EDGE('',*,*,#187,.T.);
#238=ORIENTED_EDGE('',*,*,#188,.F.);
#239=ORIENTED_EDGE('',*,*,#189,.F.);
#240=ORIENTED_EDGE('',*,*,#187,.F.);
#241=ORIENTED_EDGE('',*,*,#190,.F.);
#242=ORIENTED_EDGE('',*,*,#191,.F.);
#243=ORIENTED_EDGE('',*,*,#192,.T.);
#244=ORIENTED_EDGE('',*,*,#193,.F.);
#245=ORIENTED_EDGE('',*,*,#194,.F.);
#246=ORIENTED_EDGE('',*,*,#192,.F.);
#247=ORIENTED_EDGE('',*,*,#195,.F.);
#248=ORIENTED_EDGE('',*,*,#196,.F.);
#249=ORIENTED_EDGE('',*,*,#197,.T.);
#250=ORIENTED_EDGE('',*,*,#198,.F.);
#251=ORIENTED_EDGE('',*,*,#199,.F.);
#252=ORIENTED_EDGE('',*,*,#197,.F.);
#253=ORIENTED_EDGE('',*,*,#195,.T.);
#254=ORIENTED_EDGE('',*,*,#196,.T.);
#255=ORIENTED_EDGE('',*,*,#200,.T.);
#256=ORIENTED_EDGE('',*,*,#181,.T.);
#257=ORIENTED_EDGE('',*,*,#180,.T.);
#258=ORIENTED_EDGE('',*,*,#200,.F.);
#259=ORIENTED_EDGE('',*,*,#190,.T.);
#260=ORIENTED_EDGE('',*,*,#191,.T.);
#261=ORIENTED_EDGE('',*,*,#201,.T.);
#262=ORIENTED_EDGE('',*,*,#186,.T.);
#263=ORIENTED_EDGE('',*,*,#185,.T.);
#264=ORIENTED_EDGE('',*,*,#201,.F.);
#265=ORIENTED_EDGE('',*,*,#202,.F.);
#266=ORIENTED_EDGE('',*,*,#203,.T.);
#267=ORIENTED_EDGE('',*,*,#204,.T.);
#268=ORIENTED_EDGE('',*,*,#205,.F.);
#269=ORIENTED_EDGE('',*,*,#206,.T.);
#270=ORIENTED_EDGE('',*,*,#207,.F.);
#271=ORIENTED_EDGE('',*,*,#208,.F.);
#272=ORIENTED_EDGE('',*,*,#205,.T.);
#273=ORIENTED_EDGE('',*,*,#198,.T.);
#274=ORIENTED_EDGE('',*,*,#199,.T.);
#275=ORIENTED_EDGE('',*,*,#209,.T.);
#276=ORIENTED_EDGE('',*,*,#210,.F.);
#277=ORIENTED_EDGE('',*,*,#211,.F.);
#278=ORIENTED_EDGE('',*,*,#207,.T.);
#279=ORIENTED_EDGE('',*,*,#193,.T.);
#280=ORIENTED_EDGE('',*,*,#194,.T.);
#281=ORIENTED_EDGE('',*,*,#212,.T.);
#282=ORIENTED_EDGE('',*,*,#213,.T.);
#283=ORIENTED_EDGE('',*,*,#214,.F.);
#284=ORIENTED_EDGE('',*,*,#210,.T.);
#285=ORIENTED_EDGE('',*,*,#215,.T.);
#286=ORIENTED_EDGE('',*,*,#216,.T.);
#287=ORIENTED_EDGE('',*,*,#217,.F.);
#288=ORIENTED_EDGE('',*,*,#218,.T.);
#289=ORIENTED_EDGE('',*,*,#188,.T.);
#290=ORIENTED_EDGE('',*,*,#189,.T.);
#291=ORIENTED_EDGE('',*,*,#219,.F.);
#292=ORIENTED_EDGE('',*,*,#220,.T.);
#293=ORIENTED_EDGE('',*,*,#221,.T.);
#294=ORIENTED_EDGE('',*,*,#222,.T.);
#295=ORIENTED_EDGE('',*,*,#183,.T.);
#296=ORIENTED_EDGE('',*,*,#184,.T.);
#297=ORIENTED_EDGE('',*,*,#219,.T.);
#298=ORIENTED_EDGE('',*,*,#223,.T.);
#299=ORIENTED_EDGE('',*,*,#202,.T.);
#300=ORIENTED_EDGE('',*,*,#208,.T.);
#301=ORIENTED_EDGE('',*,*,#211,.T.);
#302=ORIENTED_EDGE('',*,*,#214,.T.);
#303=ORIENTED_EDGE('',*,*,#224,.T.);
#304=ORIENTED_EDGE('',*,*,#217,.T.);
#305=ORIENTED_EDGE('',*,*,#225,.T.);
#306=ORIENTED_EDGE('',*,*,#204,.F.);
#307=ORIENTED_EDGE('',*,*,#226,.T.);
#308=ORIENTED_EDGE('',*,*,#221,.F.);
#309=ORIENTED_EDGE('',*,*,#227,.T.);
#310=ORIENTED_EDGE('',*,*,#215,.F.);
#311=ORIENTED_EDGE('',*,*,#228,.T.);
#312=ORIENTED_EDGE('',*,*,#212,.F.);
#313=ORIENTED_EDGE('',*,*,#209,.F.);
#314=ORIENTED_EDGE('',*,*,#206,.F.);
#315=ORIENTED_EDGE('',*,*,#225,.F.);
#316=ORIENTED_EDGE('',*,*,#216,.F.);
#317=ORIENTED_EDGE('',*,*,#227,.F.);
#318=ORIENTED_EDGE('',*,*,#220,.F.);
#319=ORIENTED_EDGE('',*,*,#223,.F.);
#320=ORIENTED_EDGE('',*,*,#222,.F.);
#321=ORIENTED_EDGE('',*,*,#226,.F.);
#322=ORIENTED_EDGE('',*,*,#203,.F.);
#323=ORIENTED_EDGE('',*,*,#224,.F.);
#324=ORIENTED_EDGE('',*,*,#213,.F.);
#325=ORIENTED_EDGE('',*,*,#228,.F.);
#326=ORIENTED_EDGE('',*,*,#218,.F.);
#327=CONICAL_SURFACE('',#368,4.5,0.785398163397454);
#328=CONICAL_SURFACE('',#373,4.5,0.785398163397453);
#329=CONICAL_SURFACE('',#378,5.,0.78539816339745);
#330=CONICAL_SURFACE('',#383,4.99999999999999,0.785398163397441);
#331=ADVANCED_FACE('',(#32),#327,.F.);
#332=ADVANCED_FACE('',(#33),#328,.F.);
#333=ADVANCED_FACE('',(#34),#329,.F.);
#334=ADVANCED_FACE('',(#35),#330,.F.);
#335=ADVANCED_FACE('',(#36),#27,.F.);
#336=ADVANCED_FACE('',(#37),#28,.F.);
#337=ADVANCED_FACE('',(#38),#19,.F.);
#338=ADVANCED_FACE('',(#39,#15),#20,.F.);
#339=ADVANCED_FACE('',(#40,#16),#21,.F.);
#340=ADVANCED_FACE('',(#41),#22,.F.);
#341=ADVANCED_FACE('',(#42,#17),#23,.F.);
#342=ADVANCED_FACE('',(#43,#18),#24,.F.);
#343=ADVANCED_FACE('',(#44),#25,.T.);
#344=ADVANCED_FACE('',(#45),#26,.F.);
#345=ADVANCED_FACE('',(#46),#29,.F.);
#346=ADVANCED_FACE('',(#47),#30,.T.);
#347=ADVANCED_FACE('',(#48),#31,.T.);
#348=CLOSED_SHELL('',(#331,#332,#333,#334,#335,#336,#337,#338,#339,#340,
#341,#342,#343,#344,#345,#346,#347));
#349=DERIVED_UNIT_ELEMENT(#351,1.);
#350=DERIVED_UNIT_ELEMENT(#620,3.);
#351=(
MASS_UNIT()
NAMED_UNIT(*)
SI_UNIT($,.GRAM.)
);
#352=DERIVED_UNIT((#349,#350));
#353=MEASURE_REPRESENTATION_ITEM('density measure',
POSITIVE_RATIO_MEASURE(2.66),#352);
#354=PROPERTY_DEFINITION_REPRESENTATION(#359,#356);
#355=PROPERTY_DEFINITION_REPRESENTATION(#360,#357);
#356=REPRESENTATION('material name',(#358),#617);
#357=REPRESENTATION('density',(#353),#617);
#358=DESCRIPTIVE_REPRESENTATION_ITEM('3.1645 AlCuMgPb (Autom.leg.)',
'3.1645 AlCuMgPb (Autom.leg.)');
#359=PROPERTY_DEFINITION('material property','material name',#627);
#360=PROPERTY_DEFINITION('material property','density of part',#627);
#361=DATE_TIME_ROLE('creation_date');
#362=APPLIED_DATE_AND_TIME_ASSIGNMENT(#363,#361,(#627));
#363=DATE_AND_TIME(#364,#365);
#364=CALENDAR_DATE(2014,20,8);
#365=LOCAL_TIME(10,31,47.,#366);
#366=COORDINATED_UNIVERSAL_TIME_OFFSET(0,0,.BEHIND.);
#367=AXIS2_PLACEMENT_3D('placement',#514,#407,#408);
#368=AXIS2_PLACEMENT_3D('',#515,#409,#410);
#369=AXIS2_PLACEMENT_3D('',#518,#411,#412);
#370=AXIS2_PLACEMENT_3D('',#519,#413,#414);
#371=AXIS2_PLACEMENT_3D('',#523,#416,#417);
#372=AXIS2_PLACEMENT_3D('',#524,#418,#419);
#373=AXIS2_PLACEMENT_3D('',#525,#420,#421);
#374=AXIS2_PLACEMENT_3D('',#528,#422,#423);
#375=AXIS2_PLACEMENT_3D('',#529,#424,#425);
#376=AXIS2_PLACEMENT_3D('',#533,#427,#428);
#377=AXIS2_PLACEMENT_3D('',#534,#429,#430);
#378=AXIS2_PLACEMENT_3D('',#535,#431,#432);
#379=AXIS2_PLACEMENT_3D('',#538,#433,#434);
#380=AXIS2_PLACEMENT_3D('',#539,#435,#436);
#381=AXIS2_PLACEMENT_3D('',#543,#438,#439);
#382=AXIS2_PLACEMENT_3D('',#544,#440,#441);
#383=AXIS2_PLACEMENT_3D('',#545,#442,#443);
#384=AXIS2_PLACEMENT_3D('',#548,#444,#445);
#385=AXIS2_PLACEMENT_3D('',#549,#446,#447);
#386=AXIS2_PLACEMENT_3D('',#553,#449,#450);
#387=AXIS2_PLACEMENT_3D('',#554,#451,#452);
#388=AXIS2_PLACEMENT_3D('',#555,#453,#454);
#389=AXIS2_PLACEMENT_3D('',#557,#456,#457);
#390=AXIS2_PLACEMENT_3D('',#559,#459,#460);
#391=AXIS2_PLACEMENT_3D('',#568,#465,#466);
#392=AXIS2_PLACEMENT_3D('',#574,#470,#471);
#393=AXIS2_PLACEMENT_3D('',#580,#475,#476);
#394=AXIS2_PLACEMENT_3D('',#586,#480,#481);
#395=AXIS2_PLACEMENT_3D('',#595,#486,#487);
#396=AXIS2_PLACEMENT_3D('',#604,#492,#493);
#397=AXIS2_PLACEMENT_3D('',#605,#494,#495);
#398=AXIS2_PLACEMENT_3D('',#606,#496,#497);
#399=AXIS2_PLACEMENT_3D('',#607,#498,#499);
#400=AXIS2_PLACEMENT_3D('',#608,#500,#501);
#401=AXIS2_PLACEMENT_3D('',#609,#502,#503);
#402=AXIS2_PLACEMENT_3D('',#610,#504,#505);
#403=AXIS2_PLACEMENT_3D('',#611,#506,#507);
#404=AXIS2_PLACEMENT_3D('',#612,#508,#509);
#405=AXIS2_PLACEMENT_3D('',#613,#510,#511);
#406=AXIS2_PLACEMENT_3D('',#614,#512,#513);
#407=DIRECTION('axis',(0.,0.,1.));
#408=DIRECTION('refdir',(1.,0.,0.));
#409=DIRECTION('center_axis',(0.,1.,0.));
#410=DIRECTION('ref_axis',(0.,0.,1.));
#411=DIRECTION('center_axis',(0.,1.,0.));
#412=DIRECTION('ref_axis',(0.,0.,-1.));
#413=DIRECTION('center_axis',(0.,1.,0.));
#414=DIRECTION('ref_axis',(0.,0.,-1.));
#415=DIRECTION('',(-8.65956056235498E-17,0.707106781186544,-0.707106781186551));
#416=DIRECTION('center_axis',(0.,-1.,-1.27553196763001E-16));
#417=DIRECTION('ref_axis',(0.,1.27553196763001E-16,-1.));
#418=DIRECTION('center_axis',(0.,-1.,-1.27553196763001E-16));
#419=DIRECTION('ref_axis',(0.,1.27553196763001E-16,-1.));
#420=DIRECTION('center_axis',(0.,0.,1.));
#421=DIRECTION('ref_axis',(1.,0.,0.));
#422=DIRECTION('center_axis',(0.,0.,1.));
#423=DIRECTION('ref_axis',(-1.,0.,0.));
#424=DIRECTION('center_axis',(0.,0.,1.));
#425=DIRECTION('ref_axis',(-1.,0.,0.));
#426=DIRECTION('',(-0.707106781186551,-8.65956056235498E-17,0.707106781186544));
#427=DIRECTION('center_axis',(0.,2.55106393526001E-17,-1.));
#428=DIRECTION('ref_axis',(0.,1.,2.55106393526001E-17));
#429=DIRECTION('center_axis',(0.,2.55106393526001E-17,-1.));
#430=DIRECTION('ref_axis',(0.,1.,2.55106393526001E-17));
#431=DIRECTION('center_axis',(0.,0.,-1.));
#432=DIRECTION('ref_axis',(-1.,0.,0.));
#433=DIRECTION('center_axis',(0.,0.,-1.));
#434=DIRECTION('ref_axis',(1.,0.,0.));
#435=DIRECTION('center_axis',(0.,0.,-1.));
#436=DIRECTION('ref_axis',(1.,0.,0.));
#437=DIRECTION('',(0.707106781186549,-8.65956056235495E-17,-0.707106781186546));
#438=DIRECTION('center_axis',(0.,0.,1.));
#439=DIRECTION('ref_axis',(1.,0.,0.));
#440=DIRECTION('center_axis',(0.,0.,1.));
#441=DIRECTION('ref_axis',(1.,0.,0.));
#442=DIRECTION('center_axis',(0.,-1.,0.));
#443=DIRECTION('ref_axis',(0.,0.,-1.));
#444=DIRECTION('center_axis',(0.,-1.,0.));
#445=DIRECTION('ref_axis',(0.,0.,1.));
#446=DIRECTION('center_axis',(0.,-1.,0.));
#447=DIRECTION('ref_axis',(0.,0.,1.));
#448=DIRECTION('',(-8.65956056235487E-17,-0.707106781186553,0.707106781186542));
#449=DIRECTION('center_axis',(0.,1.,0.));
#450=DIRECTION('ref_axis',(0.,0.,1.));
#451=DIRECTION('center_axis',(0.,1.,0.));
#452=DIRECTION('ref_axis',(0.,0.,1.));
#453=DIRECTION('center_axis',(0.,1.,1.27553196763001E-16));
#454=DIRECTION('ref_axis',(0.,-1.27553196763001E-16,1.));
#455=DIRECTION('',(0.,1.,1.27553196763001E-16));
#456=DIRECTION('center_axis',(0.,0.,1.));
#457=DIRECTION('ref_axis',(1.,0.,0.));
#458=DIRECTION('',(0.,0.,1.));
#459=DIRECTION('center_axis',(0.,0.,-1.));
#460=DIRECTION('ref_axis',(-1.,0.,0.));
#461=DIRECTION('',(0.,-1.,0.));
#462=DIRECTION('',(-1.,0.,0.));
#463=DIRECTION('',(0.,-1.,0.));
#464=DIRECTION('',(-1.,0.,0.));
#465=DIRECTION('center_axis',(0.,1.,0.));
#466=DIRECTION('ref_axis',(0.,0.,1.));
#467=DIRECTION('',(0.,0.,-1.));
#468=DIRECTION('',(-1.,0.,0.));
#469=DIRECTION('',(0.,0.,-1.));
#470=DIRECTION('center_axis',(0.,0.,1.));
#471=DIRECTION('ref_axis',(1.,0.,0.));
#472=DIRECTION('',(0.,1.,0.));
#473=DIRECTION('',(-1.,0.,0.));
#474=DIRECTION('',(0.,1.,0.));
#475=DIRECTION('center_axis',(0.,-1.,0.));
#476=DIRECTION('ref_axis',(0.,0.,-1.));
#477=DIRECTION('',(0.,0.,1.));
#478=DIRECTION('',(1.,0.,0.));
#479=DIRECTION('',(0.,0.,1.));
#480=DIRECTION('center_axis',(0.,2.55106393526001E-17,-1.));
#481=DIRECTION('ref_axis',(0.,1.,2.55106393526001E-17));
#482=DIRECTION('',(0.,-1.,-2.55106393526001E-17));
#483=DIRECTION('',(1.,0.,0.));
#484=DIRECTION('',(0.,-1.,-2.55106393526001E-17));
#485=DIRECTION('',(-1.,0.,0.));
#486=DIRECTION('center_axis',(0.,-1.,-1.27553196763001E-16));
#487=DIRECTION('ref_axis',(0.,1.27553196763001E-16,-1.));
#488=DIRECTION('',(0.,-1.27553196763001E-16,1.));
#489=DIRECTION('',(-1.,0.,0.));
#490=DIRECTION('',(0.,-1.27553196763001E-16,1.));
#491=DIRECTION('',(1.,0.,0.));
#492=DIRECTION('center_axis',(1.,0.,0.));
#493=DIRECTION('ref_axis',(0.,0.,-1.));
#494=DIRECTION('center_axis',(1.,0.,0.));
#495=DIRECTION('ref_axis',(0.,0.,-1.));
#496=DIRECTION('center_axis',(1.,0.,0.));
#497=DIRECTION('ref_axis',(0.,0.,-1.));
#498=DIRECTION('center_axis',(-1.,0.,0.));
#499=DIRECTION('ref_axis',(0.,0.,-1.));
#500=DIRECTION('center_axis',(1.,0.,0.));
#501=DIRECTION('ref_axis',(0.,0.,-1.));
#502=DIRECTION('center_axis',(-1.,0.,0.));
#503=DIRECTION('ref_axis',(0.,0.,-1.));
#504=DIRECTION('center_axis',(1.,0.,0.));
#505=DIRECTION('ref_axis',(0.,0.,-1.));
#506=DIRECTION('center_axis',(-1.,0.,0.));
#507=DIRECTION('ref_axis',(0.,0.,-1.));
#508=DIRECTION('center_axis',(1.,0.,0.));
#509=DIRECTION('ref_axis',(0.,0.,-1.));
#510=DIRECTION('center_axis',(-1.,0.,0.));
#511=DIRECTION('ref_axis',(0.,0.,1.));
#512=DIRECTION('center_axis',(-1.,0.,0.));
#513=DIRECTION('ref_axis',(0.,0.,1.));
#514=CARTESIAN_POINT('',(0.,0.,0.));
#515=CARTESIAN_POINT('Origin',(0.,5.50000000000001,20.));
#516=CARTESIAN_POINT('',(0.,5.50000000000001,24.5));
#517=CARTESIAN_POINT('',(-5.51091059616309E-16,5.50000000000001,15.5));
#518=CARTESIAN_POINT('Origin',(0.,5.50000000000001,20.));
#519=CARTESIAN_POINT('Origin',(0.,5.50000000000001,20.));
#520=CARTESIAN_POINT('',(-6.12323399573677E-16,6.00000000000001,15.));
#521=CARTESIAN_POINT('',(-5.51091059616309E-16,5.50000000000001,15.5));
#522=CARTESIAN_POINT('',(0.,6.00000000000001,25.));
#523=CARTESIAN_POINT('Origin',(0.,6.00000000000001,20.));
#524=CARTESIAN_POINT('Origin',(0.,6.00000000000001,20.));
#525=CARTESIAN_POINT('Origin',(0.,20.,5.5));
#526=CARTESIAN_POINT('',(4.5,20.,5.5));
#527=CARTESIAN_POINT('',(-4.5,20.,5.5));
#528=CARTESIAN_POINT('Origin',(0.,20.,5.5));
#529=CARTESIAN_POINT('Origin',(0.,20.,5.5));
#530=CARTESIAN_POINT('',(-5.00000000000001,20.,6.));
#531=CARTESIAN_POINT('',(-4.5,20.,5.5));
#532=CARTESIAN_POINT('',(5.,20.,6.));
#533=CARTESIAN_POINT('Origin',(0.,20.,6.));
#534=CARTESIAN_POINT('Origin',(0.,20.,6.));
#535=CARTESIAN_POINT('Origin',(0.,20.,0.));
#536=CARTESIAN_POINT('',(-4.5,20.,0.499999999999996));
#537=CARTESIAN_POINT('',(4.5,20.,0.499999999999997));
#538=CARTESIAN_POINT('Origin',(0.,20.,0.499999999999996));
#539=CARTESIAN_POINT('Origin',(0.,20.,0.499999999999996));
#540=CARTESIAN_POINT('',(5.,20.,-1.92367069372179E-16));
#541=CARTESIAN_POINT('',(5.,20.,0.));
#542=CARTESIAN_POINT('',(-5.,20.,0.));
#543=CARTESIAN_POINT('Origin',(0.,20.,0.));
#544=CARTESIAN_POINT('Origin',(0.,20.,0.));
#545=CARTESIAN_POINT('Origin',(0.,0.,20.));
#546=CARTESIAN_POINT('',(5.51091059616309E-16,0.499999999999993,15.5));
#547=CARTESIAN_POINT('',(-5.51091059616309E-16,0.499999999999993,24.5));
#548=CARTESIAN_POINT('Origin',(0.,0.499999999999993,20.));
#549=CARTESIAN_POINT('Origin',(0.,0.499999999999993,20.));
#550=CARTESIAN_POINT('',(-6.12323399573675E-16,-4.69922825528468E-16,25.));
#551=CARTESIAN_POINT('',(-6.12323399573675E-16,0.,25.));
#552=CARTESIAN_POINT('',(0.,0.,15.));
#553=CARTESIAN_POINT('Origin',(0.,0.,20.));
#554=CARTESIAN_POINT('Origin',(0.,0.,20.));
#555=CARTESIAN_POINT('Origin',(0.,-2.60208521396521E-15,20.));
#556=CARTESIAN_POINT('',(-5.51091059616309E-16,-2.02809582853171E-15,15.5));
#557=CARTESIAN_POINT('Origin',(0.,20.,0.));
#558=CARTESIAN_POINT('',(-4.5,20.,0.));
#559=CARTESIAN_POINT('Origin',(18.,6.,40.));
#560=CARTESIAN_POINT('',(18.,2.,40.));
#561=CARTESIAN_POINT('',(18.,0.,40.));
#562=CARTESIAN_POINT('',(18.,6.,40.));
#563=CARTESIAN_POINT('',(-18.,2.,40.));
#564=CARTESIAN_POINT('',(18.,2.,40.));
#565=CARTESIAN_POINT('',(-18.,0.,40.));
#566=CARTESIAN_POINT('',(-18.,6.,40.));
#567=CARTESIAN_POINT('',(18.,0.,40.));
#568=CARTESIAN_POINT('Origin',(18.,0.,40.));
#569=CARTESIAN_POINT('',(-18.,0.,0.));
#570=CARTESIAN_POINT('',(-18.,0.,40.));
#571=CARTESIAN_POINT('',(18.,0.,0.));
#572=CARTESIAN_POINT('',(18.,0.,0.));
#573=CARTESIAN_POINT('',(18.,0.,40.));
#574=CARTESIAN_POINT('Origin',(18.,0.,0.));
#575=CARTESIAN_POINT('',(-18.,40.,0.));
#576=CARTESIAN_POINT('',(-18.,0.,0.));
#577=CARTESIAN_POINT('',(18.,40.,0.));
#578=CARTESIAN_POINT('',(18.,40.,0.));
#579=CARTESIAN_POINT('',(18.,0.,0.));
#580=CARTESIAN_POINT('Origin',(18.,40.,0.));
#581=CARTESIAN_POINT('',(-18.,40.,2.));
#582=CARTESIAN_POINT('',(-18.,40.,0.));
#583=CARTESIAN_POINT('',(18.,40.,2.));
#584=CARTESIAN_POINT('',(18.,40.,2.));
#585=CARTESIAN_POINT('',(18.,40.,0.));
#586=CARTESIAN_POINT('Origin',(18.,40.,6.));
#587=CARTESIAN_POINT('',(-18.,36.,6.));
#588=CARTESIAN_POINT('',(-18.,10.,6.));
#589=CARTESIAN_POINT('',(-18.,40.,6.));
#590=CARTESIAN_POINT('',(18.,10.,6.));
#591=CARTESIAN_POINT('',(18.,10.,6.));
#592=CARTESIAN_POINT('',(18.,36.,6.));
#593=CARTESIAN_POINT('',(18.,40.,6.));
#594=CARTESIAN_POINT('',(18.,36.,6.));
#595=CARTESIAN_POINT('Origin',(18.,6.00000000000001,6.));
#596=CARTESIAN_POINT('',(18.,6.00000000000001,10.));
#597=CARTESIAN_POINT('',(18.,6.,36.));
#598=CARTESIAN_POINT('',(18.,6.00000000000001,6.));
#599=CARTESIAN_POINT('',(-18.,6.00000000000001,10.));
#600=CARTESIAN_POINT('',(-18.,6.00000000000001,10.));
#601=CARTESIAN_POINT('',(-18.,6.,36.));
#602=CARTESIAN_POINT('',(-18.,6.00000000000001,6.));
#603=CARTESIAN_POINT('',(18.,6.,36.));
#604=CARTESIAN_POINT('Origin',(18.,0.,40.));
#605=CARTESIAN_POINT('Origin',(18.,2.,36.));
#606=CARTESIAN_POINT('Origin',(18.,36.,2.));
#607=CARTESIAN_POINT('Origin',(18.,10.,10.));
#608=CARTESIAN_POINT('Origin',(-18.,0.,40.));
#609=CARTESIAN_POINT('Origin',(-18.,2.,36.));
#610=CARTESIAN_POINT('Origin',(-18.,10.,10.));
#611=CARTESIAN_POINT('Origin',(-18.,36.,2.));
#612=CARTESIAN_POINT('Origin',(18.,10.,10.));
#613=CARTESIAN_POINT('Origin',(18.,2.,36.));
#614=CARTESIAN_POINT('Origin',(18.,36.,2.));
#615=UNCERTAINTY_MEASURE_WITH_UNIT(LENGTH_MEASURE(0.01),#619,
'DISTANCE_ACCURACY_VALUE',
'Maximum model space distance between geometric entities at asserted c
onnectivities');
#616=UNCERTAINTY_MEASURE_WITH_UNIT(LENGTH_MEASURE(0.01),#619,
'DISTANCE_ACCURACY_VALUE',
'Maximum model space distance between geometric entities at asserted c
onnectivities');
#617=(
GEOMETRIC_REPRESENTATION_CONTEXT(3)
GLOBAL_UNCERTAINTY_ASSIGNED_CONTEXT((#615))
GLOBAL_UNIT_ASSIGNED_CONTEXT((#619,#622,#621))
REPRESENTATION_CONTEXT('','3D')
);
#618=(
GEOMETRIC_REPRESENTATION_CONTEXT(3)
GLOBAL_UNCERTAINTY_ASSIGNED_CONTEXT((#616))
GLOBAL_UNIT_ASSIGNED_CONTEXT((#619,#622,#621))
REPRESENTATION_CONTEXT('','3D')
);
#619=(
LENGTH_UNIT()
NAMED_UNIT(*)
SI_UNIT(.MILLI.,.METRE.)
);
#620=(
LENGTH_UNIT()
NAMED_UNIT(*)
SI_UNIT(.CENTI.,.METRE.)
);
#621=(
NAMED_UNIT(*)
SI_UNIT($,.STERADIAN.)
SOLID_ANGLE_UNIT()
);
#622=(
NAMED_UNIT(*)
PLANE_ANGLE_UNIT()
SI_UNIT($,.RADIAN.)
);
#623=SHAPE_DEFINITION_REPRESENTATION(#624,#625);
#624=PRODUCT_DEFINITION_SHAPE('',$,#627);
#625=SHAPE_REPRESENTATION('',(#367),#617);
#626=PRODUCT_DEFINITION_CONTEXT('part definition',#631,'design');
#627=PRODUCT_DEFINITION('14048',
'14048_KriTec_Winkel_8_Al_40x40x36x6_Softline',#628,#626);
#628=PRODUCT_DEFINITION_FORMATION('',$,#633);
#629=PRODUCT_RELATED_PRODUCT_CATEGORY(
'14048_KriTec_Winkel_8_Al_40x40x36x6_Softline',
'14048_KriTec_Winkel_8_Al_40x40x36x6_Softline',(#633));
#630=APPLICATION_PROTOCOL_DEFINITION('international standard',
'automotive_design',2009,#631);
#631=APPLICATION_CONTEXT(
'Core Data for Automotive Mechanical Design Process');
#632=PRODUCT_CONTEXT('part definition',#631,'mechanical');
#633=PRODUCT('14048','14048_KriTec_Winkel_8_Al_40x40x36x6_Softline',
'KriTec Winkel 8 Al 40x40x36x6 Softline',(#632));
#634=PRESENTATION_STYLE_ASSIGNMENT((#636));
#635=PRESENTATION_STYLE_ASSIGNMENT((#637));
#636=SURFACE_STYLE_USAGE(.BOTH.,#638);
#637=SURFACE_STYLE_USAGE(.BOTH.,#639);
#638=SURFACE_SIDE_STYLE('',(#640));
#639=SURFACE_SIDE_STYLE('',(#641));
#640=SURFACE_STYLE_FILL_AREA(#642);
#641=SURFACE_STYLE_FILL_AREA(#643);
#642=FILL_AREA_STYLE('',(#644));
#643=FILL_AREA_STYLE('',(#645));
#644=FILL_AREA_STYLE_COLOUR('',#646);
#645=FILL_AREA_STYLE_COLOUR('',#647);
#646=COLOUR_RGB('',0.956862745098039,0.945098039215686,0.972549019607843);
#647=COLOUR_RGB('',0.996078431372549,0.996078431372549,1.);
ENDSEC;
END-ISO-10303-21;
