ISO-10303-21;
HEADER;
/* Generated by software containing ST-Developer
 * from STEP Tools, Inc. (www.steptools.com) 
 */

FILE_DESCRIPTION(
/* description */ ('14030_KriTec_Winkel_5_Al_20x20x18x3_Softline'),
/* implementation_level */ '2;1');

FILE_NAME(
/* name */ 
'S:\\Bilder_neu\\14030_KriTec_Winkel_5_Al_20x20x18x3_Softline\\Invento
rdateien\\14030_KriTec_Winkel_5_Al_20x20x18x3_Softline.stp',
/* time_stamp */ '2019-01-30T11:50:17+01:00',
/* author */ ('jendrek'),
/* organization */ (''),
/* preprocessor_version */ 'ST-DEVELOPER v17',
/* originating_system */ 'Autodesk Inventor 2018',
/* authorisation */ ' ');

FILE_SCHEMA (('AUTOMOTIVE_DESIGN { 1 0 10303 214 3 1 1 }'));
ENDSEC;

DATA;
#10=MECHANICAL_DESIGN_GEOMETRIC_PRESENTATION_REPRESENTATION('',(#330,#331,
#332,#333,#334,#335,#336,#337,#338,#339,#340,#341,#342,#343,#344,#345,#346,
#347),#635);
#11=SHAPE_REPRESENTATION_RELATIONSHIP('SRR','None',#642,#12);
#12=ADVANCED_BREP_SHAPE_REPRESENTATION('',(#13),#634);
#13=MANIFOLD_SOLID_BREP('Volumenk\X\F6rper1',#365);
#14=FACE_BOUND('',#56,.T.);
#15=FACE_BOUND('',#58,.T.);
#16=FACE_BOUND('',#61,.T.);
#17=FACE_BOUND('',#63,.T.);
#18=PLANE('',#407);
#19=PLANE('',#408);
#20=PLANE('',#409);
#21=PLANE('',#410);
#22=PLANE('',#411);
#23=PLANE('',#412);
#24=PLANE('',#413);
#25=PLANE('',#417);
#26=CYLINDRICAL_SURFACE('',#405,2.75);
#27=CYLINDRICAL_SURFACE('',#406,2.75);
#28=CYLINDRICAL_SURFACE('',#421,2.);
#29=CYLINDRICAL_SURFACE('',#422,2.);
#30=CYLINDRICAL_SURFACE('',#423,2.);
#31=FACE_OUTER_BOUND('',#48,.T.);
#32=FACE_OUTER_BOUND('',#49,.T.);
#33=FACE_OUTER_BOUND('',#50,.T.);
#34=FACE_OUTER_BOUND('',#51,.T.);
#35=FACE_OUTER_BOUND('',#52,.T.);
#36=FACE_OUTER_BOUND('',#53,.T.);
#37=FACE_OUTER_BOUND('',#54,.T.);
#38=FACE_OUTER_BOUND('',#55,.T.);
#39=FACE_OUTER_BOUND('',#57,.T.);
#40=FACE_OUTER_BOUND('',#59,.T.);
#41=FACE_OUTER_BOUND('',#60,.T.);
#42=FACE_OUTER_BOUND('',#62,.T.);
#43=FACE_OUTER_BOUND('',#64,.T.);
#44=FACE_OUTER_BOUND('',#65,.T.);
#45=FACE_OUTER_BOUND('',#66,.T.);
#46=FACE_OUTER_BOUND('',#67,.T.);
#47=FACE_OUTER_BOUND('',#68,.T.);
#48=EDGE_LOOP('',(#228,#229,#230,#231,#232,#233));
#49=EDGE_LOOP('',(#234,#235,#236,#237,#238,#239));
#50=EDGE_LOOP('',(#240,#241,#242,#243,#244,#245));
#51=EDGE_LOOP('',(#246,#247,#248,#249,#250,#251));
#52=EDGE_LOOP('',(#252,#253,#254,#255,#256,#257));
#53=EDGE_LOOP('',(#258,#259,#260,#261,#262,#263));
#54=EDGE_LOOP('',(#264,#265,#266,#267));
#55=EDGE_LOOP('',(#268,#269,#270,#271));
#56=EDGE_LOOP('',(#272,#273));
#57=EDGE_LOOP('',(#274,#275,#276,#277));
#58=EDGE_LOOP('',(#278,#279));
#59=EDGE_LOOP('',(#280,#281,#282,#283));
#60=EDGE_LOOP('',(#284,#285,#286,#287));
#61=EDGE_LOOP('',(#288,#289));
#62=EDGE_LOOP('',(#290,#291,#292,#293));
#63=EDGE_LOOP('',(#294,#295));
#64=EDGE_LOOP('',(#296,#297,#298,#299,#300,#301,#302,#303,#304));
#65=EDGE_LOOP('',(#305,#306,#307,#308,#309,#310,#311,#312,#313));
#66=EDGE_LOOP('',(#314,#315,#316,#317));
#67=EDGE_LOOP('',(#318,#319,#320,#321));
#68=EDGE_LOOP('',(#322,#323,#324,#325));
#69=LINE('',#538,#96);
#70=LINE('',#548,#97);
#71=LINE('',#558,#98);
#72=LINE('',#568,#99);
#73=LINE('',#573,#100);
#74=LINE('',#575,#101);
#75=LINE('',#579,#102);
#76=LINE('',#581,#103);
#77=LINE('',#583,#104);
#78=LINE('',#584,#105);
#79=LINE('',#587,#106);
#80=LINE('',#589,#107);
#81=LINE('',#590,#108);
#82=LINE('',#593,#109);
#83=LINE('',#595,#110);
#84=LINE('',#596,#111);
#85=LINE('',#599,#112);
#86=LINE('',#601,#113);
#87=LINE('',#602,#114);
#88=LINE('',#606,#115);
#89=LINE('',#608,#116);
#90=LINE('',#610,#117);
#91=LINE('',#611,#118);
#92=LINE('',#615,#119);
#93=LINE('',#617,#120);
#94=LINE('',#619,#121);
#95=LINE('',#620,#122);
#96=VECTOR('',#432,2.75);
#97=VECTOR('',#443,2.75);
#98=VECTOR('',#454,3.25);
#99=VECTOR('',#465,3.25);
#100=VECTOR('',#472,2.75);
#101=VECTOR('',#475,2.75);
#102=VECTOR('',#478,1000.);
#103=VECTOR('',#479,1000.);
#104=VECTOR('',#480,1000.);
#105=VECTOR('',#481,1000.);
#106=VECTOR('',#484,1000.);
#107=VECTOR('',#485,1000.);
#108=VECTOR('',#486,1000.);
#109=VECTOR('',#489,1000.);
#110=VECTOR('',#490,1000.);
#111=VECTOR('',#491,1000.);
#112=VECTOR('',#494,1000.);
#113=VECTOR('',#495,1000.);
#114=VECTOR('',#496,1000.);
#115=VECTOR('',#499,1000.);
#116=VECTOR('',#500,1000.);
#117=VECTOR('',#501,1000.);
#118=VECTOR('',#502,1000.);
#119=VECTOR('',#505,1000.);
#120=VECTOR('',#506,1000.);
#121=VECTOR('',#507,1000.);
#122=VECTOR('',#508,1000.);
#123=CIRCLE('',#386,2.75);
#124=CIRCLE('',#387,2.75);
#125=CIRCLE('',#388,3.25);
#126=CIRCLE('',#389,3.25);
#127=CIRCLE('',#391,2.75);
#128=CIRCLE('',#392,2.75);
#129=CIRCLE('',#393,3.25000000000001);
#130=CIRCLE('',#394,3.25000000000001);
#131=CIRCLE('',#396,2.75);
#132=CIRCLE('',#397,2.75);
#133=CIRCLE('',#398,3.25);
#134=CIRCLE('',#399,3.25);
#135=CIRCLE('',#401,2.75);
#136=CIRCLE('',#402,2.75);
#137=CIRCLE('',#403,3.25);
#138=CIRCLE('',#404,3.25);
#139=CIRCLE('',#414,2.);
#140=CIRCLE('',#415,2.);
#141=CIRCLE('',#416,2.);
#142=CIRCLE('',#418,2.);
#143=CIRCLE('',#419,2.);
#144=CIRCLE('',#420,2.);
#145=VERTEX_POINT('',#533);
#146=VERTEX_POINT('',#534);
#147=VERTEX_POINT('',#537);
#148=VERTEX_POINT('',#539);
#149=VERTEX_POINT('',#543);
#150=VERTEX_POINT('',#544);
#151=VERTEX_POINT('',#547);
#152=VERTEX_POINT('',#549);
#153=VERTEX_POINT('',#553);
#154=VERTEX_POINT('',#554);
#155=VERTEX_POINT('',#557);
#156=VERTEX_POINT('',#559);
#157=VERTEX_POINT('',#563);
#158=VERTEX_POINT('',#564);
#159=VERTEX_POINT('',#567);
#160=VERTEX_POINT('',#569);
#161=VERTEX_POINT('',#577);
#162=VERTEX_POINT('',#578);
#163=VERTEX_POINT('',#580);
#164=VERTEX_POINT('',#582);
#165=VERTEX_POINT('',#586);
#166=VERTEX_POINT('',#588);
#167=VERTEX_POINT('',#592);
#168=VERTEX_POINT('',#594);
#169=VERTEX_POINT('',#598);
#170=VERTEX_POINT('',#600);
#171=VERTEX_POINT('',#604);
#172=VERTEX_POINT('',#605);
#173=VERTEX_POINT('',#607);
#174=VERTEX_POINT('',#609);
#175=VERTEX_POINT('',#613);
#176=VERTEX_POINT('',#614);
#177=VERTEX_POINT('',#616);
#178=VERTEX_POINT('',#618);
#179=EDGE_CURVE('',#145,#146,#123,.T.);
#180=EDGE_CURVE('',#146,#145,#124,.T.);
#181=EDGE_CURVE('',#146,#147,#69,.T.);
#182=EDGE_CURVE('',#148,#147,#125,.T.);
#183=EDGE_CURVE('',#147,#148,#126,.T.);
#184=EDGE_CURVE('',#149,#150,#127,.T.);
#185=EDGE_CURVE('',#150,#149,#128,.T.);
#186=EDGE_CURVE('',#150,#151,#70,.T.);
#187=EDGE_CURVE('',#152,#151,#129,.T.);
#188=EDGE_CURVE('',#151,#152,#130,.T.);
#189=EDGE_CURVE('',#153,#154,#131,.T.);
#190=EDGE_CURVE('',#154,#153,#132,.T.);
#191=EDGE_CURVE('',#154,#155,#71,.T.);
#192=EDGE_CURVE('',#156,#155,#133,.T.);
#193=EDGE_CURVE('',#155,#156,#134,.T.);
#194=EDGE_CURVE('',#157,#158,#135,.T.);
#195=EDGE_CURVE('',#158,#157,#136,.T.);
#196=EDGE_CURVE('',#158,#159,#72,.T.);
#197=EDGE_CURVE('',#160,#159,#137,.T.);
#198=EDGE_CURVE('',#159,#160,#138,.T.);
#199=EDGE_CURVE('',#146,#157,#73,.T.);
#200=EDGE_CURVE('',#150,#153,#74,.T.);
#201=EDGE_CURVE('',#161,#162,#75,.T.);
#202=EDGE_CURVE('',#161,#163,#76,.T.);
#203=EDGE_CURVE('',#163,#164,#77,.T.);
#204=EDGE_CURVE('',#162,#164,#78,.T.);
#205=EDGE_CURVE('',#164,#165,#79,.T.);
#206=EDGE_CURVE('',#166,#165,#80,.T.);
#207=EDGE_CURVE('',#162,#166,#81,.T.);
#208=EDGE_CURVE('',#165,#167,#82,.T.);
#209=EDGE_CURVE('',#168,#167,#83,.T.);
#210=EDGE_CURVE('',#166,#168,#84,.T.);
#211=EDGE_CURVE('',#167,#169,#85,.T.);
#212=EDGE_CURVE('',#169,#170,#86,.T.);
#213=EDGE_CURVE('',#168,#170,#87,.T.);
#214=EDGE_CURVE('',#171,#172,#88,.T.);
#215=EDGE_CURVE('',#172,#173,#89,.T.);
#216=EDGE_CURVE('',#174,#173,#90,.T.);
#217=EDGE_CURVE('',#174,#171,#91,.T.);
#218=EDGE_CURVE('',#175,#176,#92,.T.);
#219=EDGE_CURVE('',#175,#177,#93,.T.);
#220=EDGE_CURVE('',#177,#178,#94,.T.);
#221=EDGE_CURVE('',#178,#176,#95,.T.);
#222=EDGE_CURVE('',#176,#161,#139,.T.);
#223=EDGE_CURVE('',#170,#174,#140,.T.);
#224=EDGE_CURVE('',#173,#175,#141,.T.);
#225=EDGE_CURVE('',#163,#178,#142,.T.);
#226=EDGE_CURVE('',#177,#172,#143,.T.);
#227=EDGE_CURVE('',#171,#169,#144,.T.);
#228=ORIENTED_EDGE('',*,*,#179,.F.);
#229=ORIENTED_EDGE('',*,*,#180,.F.);
#230=ORIENTED_EDGE('',*,*,#181,.T.);
#231=ORIENTED_EDGE('',*,*,#182,.F.);
#232=ORIENTED_EDGE('',*,*,#183,.F.);
#233=ORIENTED_EDGE('',*,*,#181,.F.);
#234=ORIENTED_EDGE('',*,*,#184,.F.);
#235=ORIENTED_EDGE('',*,*,#185,.F.);
#236=ORIENTED_EDGE('',*,*,#186,.T.);
#237=ORIENTED_EDGE('',*,*,#187,.F.);
#238=ORIENTED_EDGE('',*,*,#188,.F.);
#239=ORIENTED_EDGE('',*,*,#186,.F.);
#240=ORIENTED_EDGE('',*,*,#189,.F.);
#241=ORIENTED_EDGE('',*,*,#190,.F.);
#242=ORIENTED_EDGE('',*,*,#191,.T.);
#243=ORIENTED_EDGE('',*,*,#192,.F.);
#244=ORIENTED_EDGE('',*,*,#193,.F.);
#245=ORIENTED_EDGE('',*,*,#191,.F.);
#246=ORIENTED_EDGE('',*,*,#194,.F.);
#247=ORIENTED_EDGE('',*,*,#195,.F.);
#248=ORIENTED_EDGE('',*,*,#196,.T.);
#249=ORIENTED_EDGE('',*,*,#197,.F.);
#250=ORIENTED_EDGE('',*,*,#198,.F.);
#251=ORIENTED_EDGE('',*,*,#196,.F.);
#252=ORIENTED_EDGE('',*,*,#179,.T.);
#253=ORIENTED_EDGE('',*,*,#199,.T.);
#254=ORIENTED_EDGE('',*,*,#194,.T.);
#255=ORIENTED_EDGE('',*,*,#195,.T.);
#256=ORIENTED_EDGE('',*,*,#199,.F.);
#257=ORIENTED_EDGE('',*,*,#180,.T.);
#258=ORIENTED_EDGE('',*,*,#184,.T.);
#259=ORIENTED_EDGE('',*,*,#200,.T.);
#260=ORIENTED_EDGE('',*,*,#189,.T.);
#261=ORIENTED_EDGE('',*,*,#190,.T.);
#262=ORIENTED_EDGE('',*,*,#200,.F.);
#263=ORIENTED_EDGE('',*,*,#185,.T.);
#264=ORIENTED_EDGE('',*,*,#201,.F.);
#265=ORIENTED_EDGE('',*,*,#202,.T.);
#266=ORIENTED_EDGE('',*,*,#203,.T.);
#267=ORIENTED_EDGE('',*,*,#204,.F.);
#268=ORIENTED_EDGE('',*,*,#205,.T.);
#269=ORIENTED_EDGE('',*,*,#206,.F.);
#270=ORIENTED_EDGE('',*,*,#207,.F.);
#271=ORIENTED_EDGE('',*,*,#204,.T.);
#272=ORIENTED_EDGE('',*,*,#197,.T.);
#273=ORIENTED_EDGE('',*,*,#198,.T.);
#274=ORIENTED_EDGE('',*,*,#208,.T.);
#275=ORIENTED_EDGE('',*,*,#209,.F.);
#276=ORIENTED_EDGE('',*,*,#210,.F.);
#277=ORIENTED_EDGE('',*,*,#206,.T.);
#278=ORIENTED_EDGE('',*,*,#192,.T.);
#279=ORIENTED_EDGE('',*,*,#193,.T.);
#280=ORIENTED_EDGE('',*,*,#211,.T.);
#281=ORIENTED_EDGE('',*,*,#212,.T.);
#282=ORIENTED_EDGE('',*,*,#213,.F.);
#283=ORIENTED_EDGE('',*,*,#209,.T.);
#284=ORIENTED_EDGE('',*,*,#214,.T.);
#285=ORIENTED_EDGE('',*,*,#215,.T.);
#286=ORIENTED_EDGE('',*,*,#216,.F.);
#287=ORIENTED_EDGE('',*,*,#217,.T.);
#288=ORIENTED_EDGE('',*,*,#187,.T.);
#289=ORIENTED_EDGE('',*,*,#188,.T.);
#290=ORIENTED_EDGE('',*,*,#218,.F.);
#291=ORIENTED_EDGE('',*,*,#219,.T.);
#292=ORIENTED_EDGE('',*,*,#220,.T.);
#293=ORIENTED_EDGE('',*,*,#221,.T.);
#294=ORIENTED_EDGE('',*,*,#182,.T.);
#295=ORIENTED_EDGE('',*,*,#183,.T.);
#296=ORIENTED_EDGE('',*,*,#218,.T.);
#297=ORIENTED_EDGE('',*,*,#222,.T.);
#298=ORIENTED_EDGE('',*,*,#201,.T.);
#299=ORIENTED_EDGE('',*,*,#207,.T.);
#300=ORIENTED_EDGE('',*,*,#210,.T.);
#301=ORIENTED_EDGE('',*,*,#213,.T.);
#302=ORIENTED_EDGE('',*,*,#223,.T.);
#303=ORIENTED_EDGE('',*,*,#216,.T.);
#304=ORIENTED_EDGE('',*,*,#224,.T.);
#305=ORIENTED_EDGE('',*,*,#203,.F.);
#306=ORIENTED_EDGE('',*,*,#225,.T.);
#307=ORIENTED_EDGE('',*,*,#220,.F.);
#308=ORIENTED_EDGE('',*,*,#226,.T.);
#309=ORIENTED_EDGE('',*,*,#214,.F.);
#310=ORIENTED_EDGE('',*,*,#227,.T.);
#311=ORIENTED_EDGE('',*,*,#211,.F.);
#312=ORIENTED_EDGE('',*,*,#208,.F.);
#313=ORIENTED_EDGE('',*,*,#205,.F.);
#314=ORIENTED_EDGE('',*,*,#224,.F.);
#315=ORIENTED_EDGE('',*,*,#215,.F.);
#316=ORIENTED_EDGE('',*,*,#226,.F.);
#317=ORIENTED_EDGE('',*,*,#219,.F.);
#318=ORIENTED_EDGE('',*,*,#222,.F.);
#319=ORIENTED_EDGE('',*,*,#221,.F.);
#320=ORIENTED_EDGE('',*,*,#225,.F.);
#321=ORIENTED_EDGE('',*,*,#202,.F.);
#322=ORIENTED_EDGE('',*,*,#223,.F.);
#323=ORIENTED_EDGE('',*,*,#212,.F.);
#324=ORIENTED_EDGE('',*,*,#227,.F.);
#325=ORIENTED_EDGE('',*,*,#217,.F.);
#326=CONICAL_SURFACE('',#385,2.75,0.78539816339745);
#327=CONICAL_SURFACE('',#390,2.75,0.785398163397447);
#328=CONICAL_SURFACE('',#395,3.25,0.785398163397448);
#329=CONICAL_SURFACE('',#400,3.25,0.785398163397448);
#330=STYLED_ITEM('',(#651),#348);
#331=STYLED_ITEM('',(#651),#349);
#332=STYLED_ITEM('',(#651),#350);
#333=STYLED_ITEM('',(#651),#351);
#334=STYLED_ITEM('',(#651),#352);
#335=STYLED_ITEM('',(#651),#353);
#336=STYLED_ITEM('',(#651),#354);
#337=STYLED_ITEM('',(#651),#355);
#338=STYLED_ITEM('',(#651),#356);
#339=STYLED_ITEM('',(#651),#357);
#340=STYLED_ITEM('',(#651),#358);
#341=STYLED_ITEM('',(#651),#359);
#342=STYLED_ITEM('',(#651),#360);
#343=STYLED_ITEM('',(#651),#361);
#344=STYLED_ITEM('',(#651),#362);
#345=STYLED_ITEM('',(#651),#363);
#346=STYLED_ITEM('',(#651),#364);
#347=STYLED_ITEM('',(#651),#13);
#348=ADVANCED_FACE('',(#31),#326,.F.);
#349=ADVANCED_FACE('',(#32),#327,.F.);
#350=ADVANCED_FACE('',(#33),#328,.F.);
#351=ADVANCED_FACE('',(#34),#329,.F.);
#352=ADVANCED_FACE('',(#35),#26,.F.);
#353=ADVANCED_FACE('',(#36),#27,.F.);
#354=ADVANCED_FACE('',(#37),#18,.F.);
#355=ADVANCED_FACE('',(#38,#14),#19,.F.);
#356=ADVANCED_FACE('',(#39,#15),#20,.F.);
#357=ADVANCED_FACE('',(#40),#21,.F.);
#358=ADVANCED_FACE('',(#41,#16),#22,.F.);
#359=ADVANCED_FACE('',(#42,#17),#23,.F.);
#360=ADVANCED_FACE('',(#43),#24,.T.);
#361=ADVANCED_FACE('',(#44),#25,.F.);
#362=ADVANCED_FACE('',(#45),#28,.F.);
#363=ADVANCED_FACE('',(#46),#29,.T.);
#364=ADVANCED_FACE('',(#47),#30,.T.);
#365=CLOSED_SHELL('',(#348,#349,#350,#351,#352,#353,#354,#355,#356,#357,
#358,#359,#360,#361,#362,#363,#364));
#366=DERIVED_UNIT_ELEMENT(#368,1.);
#367=DERIVED_UNIT_ELEMENT(#637,3.);
#368=(
MASS_UNIT()
NAMED_UNIT(*)
SI_UNIT($,.GRAM.)
);
#369=DERIVED_UNIT((#366,#367));
#370=MEASURE_REPRESENTATION_ITEM('density measure',
POSITIVE_RATIO_MEASURE(2.66),#369);
#371=PROPERTY_DEFINITION_REPRESENTATION(#376,#373);
#372=PROPERTY_DEFINITION_REPRESENTATION(#377,#374);
#373=REPRESENTATION('material name',(#375),#634);
#374=REPRESENTATION('density',(#370),#634);
#375=DESCRIPTIVE_REPRESENTATION_ITEM('3.1645 AlCuMgPb / EN AW-2007',
'3.1645 AlCuMgPb / EN AW-2007');
#376=PROPERTY_DEFINITION('material property','material name',#644);
#377=PROPERTY_DEFINITION('material property','density of part',#644);
#378=DATE_TIME_ROLE('creation_date');
#379=APPLIED_DATE_AND_TIME_ASSIGNMENT(#380,#378,(#644));
#380=DATE_AND_TIME(#381,#382);
#381=CALENDAR_DATE(2017,2,3);
#382=LOCAL_TIME(15,3,35.,#383);
#383=COORDINATED_UNIVERSAL_TIME_OFFSET(0,0,.BEHIND.);
#384=AXIS2_PLACEMENT_3D('placement',#531,#424,#425);
#385=AXIS2_PLACEMENT_3D('',#532,#426,#427);
#386=AXIS2_PLACEMENT_3D('',#535,#428,#429);
#387=AXIS2_PLACEMENT_3D('',#536,#430,#431);
#388=AXIS2_PLACEMENT_3D('',#540,#433,#434);
#389=AXIS2_PLACEMENT_3D('',#541,#435,#436);
#390=AXIS2_PLACEMENT_3D('',#542,#437,#438);
#391=AXIS2_PLACEMENT_3D('',#545,#439,#440);
#392=AXIS2_PLACEMENT_3D('',#546,#441,#442);
#393=AXIS2_PLACEMENT_3D('',#550,#444,#445);
#394=AXIS2_PLACEMENT_3D('',#551,#446,#447);
#395=AXIS2_PLACEMENT_3D('',#552,#448,#449);
#396=AXIS2_PLACEMENT_3D('',#555,#450,#451);
#397=AXIS2_PLACEMENT_3D('',#556,#452,#453);
#398=AXIS2_PLACEMENT_3D('',#560,#455,#456);
#399=AXIS2_PLACEMENT_3D('',#561,#457,#458);
#400=AXIS2_PLACEMENT_3D('',#562,#459,#460);
#401=AXIS2_PLACEMENT_3D('',#565,#461,#462);
#402=AXIS2_PLACEMENT_3D('',#566,#463,#464);
#403=AXIS2_PLACEMENT_3D('',#570,#466,#467);
#404=AXIS2_PLACEMENT_3D('',#571,#468,#469);
#405=AXIS2_PLACEMENT_3D('',#572,#470,#471);
#406=AXIS2_PLACEMENT_3D('',#574,#473,#474);
#407=AXIS2_PLACEMENT_3D('',#576,#476,#477);
#408=AXIS2_PLACEMENT_3D('',#585,#482,#483);
#409=AXIS2_PLACEMENT_3D('',#591,#487,#488);
#410=AXIS2_PLACEMENT_3D('',#597,#492,#493);
#411=AXIS2_PLACEMENT_3D('',#603,#497,#498);
#412=AXIS2_PLACEMENT_3D('',#612,#503,#504);
#413=AXIS2_PLACEMENT_3D('',#621,#509,#510);
#414=AXIS2_PLACEMENT_3D('',#622,#511,#512);
#415=AXIS2_PLACEMENT_3D('',#623,#513,#514);
#416=AXIS2_PLACEMENT_3D('',#624,#515,#516);
#417=AXIS2_PLACEMENT_3D('',#625,#517,#518);
#418=AXIS2_PLACEMENT_3D('',#626,#519,#520);
#419=AXIS2_PLACEMENT_3D('',#627,#521,#522);
#420=AXIS2_PLACEMENT_3D('',#628,#523,#524);
#421=AXIS2_PLACEMENT_3D('',#629,#525,#526);
#422=AXIS2_PLACEMENT_3D('',#630,#527,#528);
#423=AXIS2_PLACEMENT_3D('',#631,#529,#530);
#424=DIRECTION('axis',(0.,0.,1.));
#425=DIRECTION('refdir',(1.,0.,0.));
#426=DIRECTION('center_axis',(0.,1.,0.));
#427=DIRECTION('ref_axis',(0.,0.,1.));
#428=DIRECTION('center_axis',(0.,1.,0.));
#429=DIRECTION('ref_axis',(0.,0.,-1.));
#430=DIRECTION('center_axis',(0.,1.,0.));
#431=DIRECTION('ref_axis',(0.,0.,-1.));
#432=DIRECTION('',(-8.65956056235495E-17,0.707106781186546,-0.707106781186549));
#433=DIRECTION('center_axis',(0.,-1.,-1.33440267382831E-16));
#434=DIRECTION('ref_axis',(0.,1.33440267382831E-16,-1.));
#435=DIRECTION('center_axis',(0.,-1.,-1.33440267382831E-16));
#436=DIRECTION('ref_axis',(0.,1.33440267382831E-16,-1.));
#437=DIRECTION('center_axis',(0.,0.,1.));
#438=DIRECTION('ref_axis',(1.,0.,0.));
#439=DIRECTION('center_axis',(0.,0.,1.));
#440=DIRECTION('ref_axis',(-1.,0.,0.));
#441=DIRECTION('center_axis',(0.,0.,1.));
#442=DIRECTION('ref_axis',(-1.,0.,0.));
#443=DIRECTION('',(-0.707106781186546,-8.65956056235492E-17,0.707106781186548));
#444=DIRECTION('center_axis',(0.,1.33440267382831E-16,-1.));
#445=DIRECTION('ref_axis',(0.,1.,1.33440267382831E-16));
#446=DIRECTION('center_axis',(0.,1.33440267382831E-16,-1.));
#447=DIRECTION('ref_axis',(0.,1.,1.33440267382831E-16));
#448=DIRECTION('center_axis',(0.,0.,-1.));
#449=DIRECTION('ref_axis',(-1.,0.,0.));
#450=DIRECTION('center_axis',(0.,0.,-1.));
#451=DIRECTION('ref_axis',(1.,0.,0.));
#452=DIRECTION('center_axis',(0.,0.,-1.));
#453=DIRECTION('ref_axis',(1.,0.,0.));
#454=DIRECTION('',(0.707106781186547,-8.65956056235493E-17,-0.707106781186548));
#455=DIRECTION('center_axis',(0.,0.,1.));
#456=DIRECTION('ref_axis',(1.,0.,0.));
#457=DIRECTION('center_axis',(0.,0.,1.));
#458=DIRECTION('ref_axis',(1.,0.,0.));
#459=DIRECTION('center_axis',(0.,-1.,0.));
#460=DIRECTION('ref_axis',(0.,0.,-1.));
#461=DIRECTION('center_axis',(0.,-1.,0.));
#462=DIRECTION('ref_axis',(0.,0.,1.));
#463=DIRECTION('center_axis',(0.,-1.,0.));
#464=DIRECTION('ref_axis',(0.,0.,1.));
#465=DIRECTION('',(-8.65956056235493E-17,-0.707106781186548,0.707106781186547));
#466=DIRECTION('center_axis',(0.,1.,0.));
#467=DIRECTION('ref_axis',(0.,0.,1.));
#468=DIRECTION('center_axis',(0.,1.,0.));
#469=DIRECTION('ref_axis',(0.,0.,1.));
#470=DIRECTION('center_axis',(0.,-1.,-1.27553196763E-16));
#471=DIRECTION('ref_axis',(0.,-1.27553196763E-16,1.));
#472=DIRECTION('',(0.,-1.,-1.27553196763E-16));
#473=DIRECTION('center_axis',(0.,0.,-1.));
#474=DIRECTION('ref_axis',(1.,0.,0.));
#475=DIRECTION('',(0.,0.,-1.));
#476=DIRECTION('center_axis',(0.,0.,-1.));
#477=DIRECTION('ref_axis',(0.,-1.,0.));
#478=DIRECTION('',(0.,-1.,0.));
#479=DIRECTION('',(-1.,0.,0.));
#480=DIRECTION('',(0.,-1.,0.));
#481=DIRECTION('',(-1.,0.,0.));
#482=DIRECTION('center_axis',(0.,1.,0.));
#483=DIRECTION('ref_axis',(1.,0.,0.));
#484=DIRECTION('',(0.,0.,-1.));
#485=DIRECTION('',(-1.,0.,0.));
#486=DIRECTION('',(0.,0.,-1.));
#487=DIRECTION('center_axis',(0.,0.,1.));
#488=DIRECTION('ref_axis',(1.,0.,0.));
#489=DIRECTION('',(0.,1.,0.));
#490=DIRECTION('',(-1.,0.,0.));
#491=DIRECTION('',(0.,1.,0.));
#492=DIRECTION('center_axis',(0.,-1.,1.15648231731787E-15));
#493=DIRECTION('ref_axis',(-1.,0.,0.));
#494=DIRECTION('',(0.,1.15648231731787E-15,1.));
#495=DIRECTION('',(1.,0.,0.));
#496=DIRECTION('',(0.,1.15648231731787E-15,1.));
#497=DIRECTION('center_axis',(0.,1.53063836115601E-16,-1.));
#498=DIRECTION('ref_axis',(-1.,0.,0.));
#499=DIRECTION('',(0.,-1.,-1.53063836115601E-16));
#500=DIRECTION('',(1.,0.,0.));
#501=DIRECTION('',(0.,-1.,-1.53063836115601E-16));
#502=DIRECTION('',(-1.,0.,0.));
#503=DIRECTION('center_axis',(0.,-1.,-1.020425574104E-16));
#504=DIRECTION('ref_axis',(0.,1.020425574104E-16,-1.));
#505=DIRECTION('',(0.,-1.020425574104E-16,1.));
#506=DIRECTION('',(-1.,0.,0.));
#507=DIRECTION('',(0.,-1.020425574104E-16,1.));
#508=DIRECTION('',(1.,0.,0.));
#509=DIRECTION('center_axis',(1.,0.,0.));
#510=DIRECTION('ref_axis',(0.,1.,0.));
#511=DIRECTION('center_axis',(1.,0.,0.));
#512=DIRECTION('ref_axis',(0.,0.,-1.));
#513=DIRECTION('center_axis',(1.,0.,0.));
#514=DIRECTION('ref_axis',(0.,0.,-1.));
#515=DIRECTION('center_axis',(-1.,0.,0.));
#516=DIRECTION('ref_axis',(0.,0.,-1.));
#517=DIRECTION('center_axis',(1.,0.,0.));
#518=DIRECTION('ref_axis',(0.,1.,0.));
#519=DIRECTION('center_axis',(-1.,0.,0.));
#520=DIRECTION('ref_axis',(0.,0.,-1.));
#521=DIRECTION('center_axis',(1.,0.,0.));
#522=DIRECTION('ref_axis',(0.,0.,-1.));
#523=DIRECTION('center_axis',(-1.,0.,0.));
#524=DIRECTION('ref_axis',(0.,0.,-1.));
#525=DIRECTION('center_axis',(-1.,0.,0.));
#526=DIRECTION('ref_axis',(0.,0.,-1.));
#527=DIRECTION('center_axis',(1.,0.,0.));
#528=DIRECTION('ref_axis',(0.,0.,1.));
#529=DIRECTION('center_axis',(1.,0.,0.));
#530=DIRECTION('ref_axis',(0.,0.,1.));
#531=CARTESIAN_POINT('',(0.,0.,0.));
#532=CARTESIAN_POINT('Origin',(0.,2.5,10.));
#533=CARTESIAN_POINT('',(0.,2.5,12.75));
#534=CARTESIAN_POINT('',(-3.36777869765522E-16,2.5,7.25));
#535=CARTESIAN_POINT('Origin',(0.,2.5,10.));
#536=CARTESIAN_POINT('Origin',(0.,2.5,10.));
#537=CARTESIAN_POINT('',(-3.9801020972289E-16,3.,6.75));
#538=CARTESIAN_POINT('',(-3.36777869765522E-16,2.5,7.25));
#539=CARTESIAN_POINT('',(0.,3.,13.25));
#540=CARTESIAN_POINT('Origin',(0.,3.,10.));
#541=CARTESIAN_POINT('Origin',(0.,3.,10.));
#542=CARTESIAN_POINT('Origin',(0.,10.,2.49999999999999));
#543=CARTESIAN_POINT('',(2.75,10.,2.49999999999999));
#544=CARTESIAN_POINT('',(-2.75,10.,2.49999999999999));
#545=CARTESIAN_POINT('Origin',(0.,10.,2.49999999999999));
#546=CARTESIAN_POINT('Origin',(0.,10.,2.49999999999999));
#547=CARTESIAN_POINT('',(-3.25000000000001,10.,3.));
#548=CARTESIAN_POINT('',(-2.75,10.,2.49999999999999));
#549=CARTESIAN_POINT('',(3.25000000000001,10.,3.));
#550=CARTESIAN_POINT('Origin',(0.,10.,3.));
#551=CARTESIAN_POINT('Origin',(0.,10.,3.));
#552=CARTESIAN_POINT('Origin',(0.,10.,0.));
#553=CARTESIAN_POINT('',(-2.75,10.,0.500000000000004));
#554=CARTESIAN_POINT('',(2.75,10.,0.500000000000002));
#555=CARTESIAN_POINT('Origin',(0.,10.,0.500000000000004));
#556=CARTESIAN_POINT('Origin',(0.,10.,0.500000000000004));
#557=CARTESIAN_POINT('',(3.25,10.,-1.25038595091916E-16));
#558=CARTESIAN_POINT('',(3.25,10.,0.));
#559=CARTESIAN_POINT('',(-3.25,10.,0.));
#560=CARTESIAN_POINT('Origin',(0.,10.,0.));
#561=CARTESIAN_POINT('Origin',(0.,10.,0.));
#562=CARTESIAN_POINT('Origin',(0.,0.,10.));
#563=CARTESIAN_POINT('',(3.36777869765522E-16,0.499999999999997,7.25));
#564=CARTESIAN_POINT('',(-3.36777869765522E-16,0.499999999999999,12.75));
#565=CARTESIAN_POINT('Origin',(0.,0.499999999999997,10.));
#566=CARTESIAN_POINT('Origin',(0.,0.499999999999997,10.));
#567=CARTESIAN_POINT('',(-3.9801020972289E-16,-1.25038595091916E-16,13.25));
#568=CARTESIAN_POINT('',(-3.9801020972289E-16,0.,13.25));
#569=CARTESIAN_POINT('',(0.,0.,6.75));
#570=CARTESIAN_POINT('Origin',(0.,0.,10.));
#571=CARTESIAN_POINT('Origin',(0.,0.,10.));
#572=CARTESIAN_POINT('Origin',(0.,-1.30104260698261E-15,10.));
#573=CARTESIAN_POINT('',(3.36777869765522E-16,-9.5027131588436E-16,7.25));
#574=CARTESIAN_POINT('Origin',(0.,10.,0.));
#575=CARTESIAN_POINT('',(-2.75,10.,0.));
#576=CARTESIAN_POINT('Origin',(9.,3.,20.));
#577=CARTESIAN_POINT('',(9.,0.999999999999997,20.));
#578=CARTESIAN_POINT('',(9.,0.,20.));
#579=CARTESIAN_POINT('',(9.,3.,20.));
#580=CARTESIAN_POINT('',(-9.,0.999999999999997,20.));
#581=CARTESIAN_POINT('',(9.,0.999999999999997,20.));
#582=CARTESIAN_POINT('',(-9.,0.,20.));
#583=CARTESIAN_POINT('',(-9.,3.,20.));
#584=CARTESIAN_POINT('',(9.,0.,20.));
#585=CARTESIAN_POINT('Origin',(9.,0.,20.));
#586=CARTESIAN_POINT('',(-9.,0.,0.));
#587=CARTESIAN_POINT('',(-9.,0.,20.));
#588=CARTESIAN_POINT('',(9.,0.,0.));
#589=CARTESIAN_POINT('',(9.,0.,0.));
#590=CARTESIAN_POINT('',(9.,0.,20.));
#591=CARTESIAN_POINT('Origin',(9.,0.,0.));
#592=CARTESIAN_POINT('',(-9.,20.,0.));
#593=CARTESIAN_POINT('',(-9.,0.,0.));
#594=CARTESIAN_POINT('',(9.,20.,0.));
#595=CARTESIAN_POINT('',(9.,20.,0.));
#596=CARTESIAN_POINT('',(9.,0.,0.));
#597=CARTESIAN_POINT('Origin',(9.,20.,0.));
#598=CARTESIAN_POINT('',(-9.,20.,0.999999999999995));
#599=CARTESIAN_POINT('',(-9.,20.,0.));
#600=CARTESIAN_POINT('',(9.,20.,0.999999999999995));
#601=CARTESIAN_POINT('',(9.,20.,0.999999999999995));
#602=CARTESIAN_POINT('',(9.,20.,0.));
#603=CARTESIAN_POINT('Origin',(9.,20.,3.));
#604=CARTESIAN_POINT('',(-9.,18.,3.));
#605=CARTESIAN_POINT('',(-9.,5.,3.));
#606=CARTESIAN_POINT('',(-9.,20.,3.));
#607=CARTESIAN_POINT('',(9.,5.,3.));
#608=CARTESIAN_POINT('',(9.,5.,3.));
#609=CARTESIAN_POINT('',(9.,18.,3.));
#610=CARTESIAN_POINT('',(9.,20.,3.));
#611=CARTESIAN_POINT('',(9.,18.,3.));
#612=CARTESIAN_POINT('Origin',(9.,3.,2.99999999999999));
#613=CARTESIAN_POINT('',(9.,3.,5.));
#614=CARTESIAN_POINT('',(9.,3.,18.));
#615=CARTESIAN_POINT('',(9.,3.,2.99999999999999));
#616=CARTESIAN_POINT('',(-9.,3.,5.));
#617=CARTESIAN_POINT('',(-9.,3.,5.));
#618=CARTESIAN_POINT('',(-9.,3.,18.));
#619=CARTESIAN_POINT('',(-9.,3.,2.99999999999999));
#620=CARTESIAN_POINT('',(9.,3.,18.));
#621=CARTESIAN_POINT('Origin',(9.,0.,20.));
#622=CARTESIAN_POINT('Origin',(9.,0.999999999999997,18.));
#623=CARTESIAN_POINT('Origin',(9.,18.,0.999999999999997));
#624=CARTESIAN_POINT('Origin',(9.,5.,5.));
#625=CARTESIAN_POINT('Origin',(-9.,0.,20.));
#626=CARTESIAN_POINT('Origin',(-9.,0.999999999999997,18.));
#627=CARTESIAN_POINT('Origin',(-9.,5.,5.));
#628=CARTESIAN_POINT('Origin',(-9.,18.,0.999999999999997));
#629=CARTESIAN_POINT('Origin',(9.,5.,5.));
#630=CARTESIAN_POINT('Origin',(9.,0.999999999999997,18.));
#631=CARTESIAN_POINT('Origin',(9.,18.,0.999999999999997));
#632=UNCERTAINTY_MEASURE_WITH_UNIT(LENGTH_MEASURE(0.01),#636,
'DISTANCE_ACCURACY_VALUE',
'Maximum model space distance between geometric entities at asserted c
onnectivities');
#633=UNCERTAINTY_MEASURE_WITH_UNIT(LENGTH_MEASURE(0.01),#636,
'DISTANCE_ACCURACY_VALUE',
'Maximum model space distance between geometric entities at asserted c
onnectivities');
#634=(
GEOMETRIC_REPRESENTATION_CONTEXT(3)
GLOBAL_UNCERTAINTY_ASSIGNED_CONTEXT((#632))
GLOBAL_UNIT_ASSIGNED_CONTEXT((#636,#639,#638))
REPRESENTATION_CONTEXT('','3D')
);
#635=(
GEOMETRIC_REPRESENTATION_CONTEXT(3)
GLOBAL_UNCERTAINTY_ASSIGNED_CONTEXT((#633))
GLOBAL_UNIT_ASSIGNED_CONTEXT((#636,#639,#638))
REPRESENTATION_CONTEXT('','3D')
);
#636=(
LENGTH_UNIT()
NAMED_UNIT(*)
SI_UNIT(.MILLI.,.METRE.)
);
#637=(
LENGTH_UNIT()
NAMED_UNIT(*)
SI_UNIT(.CENTI.,.METRE.)
);
#638=(
NAMED_UNIT(*)
SI_UNIT($,.STERADIAN.)
SOLID_ANGLE_UNIT()
);
#639=(
NAMED_UNIT(*)
PLANE_ANGLE_UNIT()
SI_UNIT($,.RADIAN.)
);
#640=SHAPE_DEFINITION_REPRESENTATION(#641,#642);
#641=PRODUCT_DEFINITION_SHAPE('',$,#644);
#642=SHAPE_REPRESENTATION('',(#384),#634);
#643=PRODUCT_DEFINITION_CONTEXT('part definition',#648,'design');
#644=PRODUCT_DEFINITION('14030',
'14030_KriTec_Winkel_5_Al_20x20x18x3_Softline',#645,#643);
#645=PRODUCT_DEFINITION_FORMATION(' NONE',$,#650);
#646=PRODUCT_RELATED_PRODUCT_CATEGORY(
'14030_KriTec_Winkel_5_Al_20x20x18x3_Softline',
'14030_KriTec_Winkel_5_Al_20x20x18x3_Softline',(#650));
#647=APPLICATION_PROTOCOL_DEFINITION('international standard',
'automotive_design',2009,#648);
#648=APPLICATION_CONTEXT(
'Core Data for Automotive Mechanical Design Process');
#649=PRODUCT_CONTEXT('part definition',#648,'mechanical');
#650=PRODUCT('14030','14030_KriTec_Winkel_5_Al_20x20x18x3_Softline',
'14030_KriTec_Winkel_5_Al_20x20x18x3_Softline',(#649));
#651=PRESENTATION_STYLE_ASSIGNMENT((#652));
#652=SURFACE_STYLE_USAGE(.BOTH.,#653);
#653=SURFACE_SIDE_STYLE('',(#654));
#654=SURFACE_STYLE_FILL_AREA(#655);
#655=FILL_AREA_STYLE('',(#656));
#656=FILL_AREA_STYLE_COLOUR('',#657);
#657=COLOUR_RGB('',0.996078431372549,0.996078431372549,1.);
ENDSEC;
END-ISO-10303-21;
