ISO-10303-21;
HEADER;
/* Generated by software containing ST-Developer
 * from STEP Tools, Inc. (www.steptools.com) 
 */

FILE_DESCRIPTION(
/* description */ (
'KriTec Abdeckkappe 8 160x160 St, grau \X\E4hnl. RAL 7042 inkl. Befest
igungssatz'),
/* implementation_level */ '2;1');

FILE_NAME(
/* name */ 
'C:\\Arbeitsordner\\Designs\\Kuhlemann\\neuteile\\13917\\13917_KriTec_
Abdeckkappe_8_160x160_grau_aehnl_RAL_7042_inkl_Bef.stp',
/* time_stamp */ '2022-08-16T10:40:08+02:00',
/* author */ ('Nell'),
/* organization */ (''),
/* preprocessor_version */ 'ST-DEVELOPER v17',
/* originating_system */ 'Autodesk Inventor 2018',
/* authorisation */ '');

FILE_SCHEMA (('AUTOMOTIVE_DESIGN { 1 0 10303 214 3 1 1 }'));
ENDSEC;

DATA;
#10=MECHANICAL_DESIGN_GEOMETRIC_PRESENTATION_REPRESENTATION('',(#13),#525);
#11=SHAPE_REPRESENTATION_RELATIONSHIP('SRR','None',#532,#12);
#12=ADVANCED_BREP_SHAPE_REPRESENTATION('',(#14),#524);
#13=STYLED_ITEM('',(#541),#14);
#14=MANIFOLD_SOLID_BREP('Volumenk\X\F6rper1',#295);
#15=FACE_BOUND('',#50,.T.);
#16=FACE_BOUND('',#51,.T.);
#17=FACE_BOUND('',#52,.T.);
#18=FACE_BOUND('',#53,.T.);
#19=FACE_BOUND('',#61,.T.);
#20=FACE_BOUND('',#62,.T.);
#21=FACE_BOUND('',#63,.T.);
#22=FACE_BOUND('',#64,.T.);
#23=PLANE('',#334);
#24=PLANE('',#335);
#25=PLANE('',#341);
#26=PLANE('',#344);
#27=PLANE('',#347);
#28=PLANE('',#348);
#29=FACE_OUTER_BOUND('',#43,.T.);
#30=FACE_OUTER_BOUND('',#44,.T.);
#31=FACE_OUTER_BOUND('',#45,.T.);
#32=FACE_OUTER_BOUND('',#46,.T.);
#33=FACE_OUTER_BOUND('',#47,.T.);
#34=FACE_OUTER_BOUND('',#48,.T.);
#35=FACE_OUTER_BOUND('',#49,.T.);
#36=FACE_OUTER_BOUND('',#54,.T.);
#37=FACE_OUTER_BOUND('',#55,.T.);
#38=FACE_OUTER_BOUND('',#56,.T.);
#39=FACE_OUTER_BOUND('',#57,.T.);
#40=FACE_OUTER_BOUND('',#58,.T.);
#41=FACE_OUTER_BOUND('',#59,.T.);
#42=FACE_OUTER_BOUND('',#60,.T.);
#43=EDGE_LOOP('',(#193,#194,#195,#196,#197));
#44=EDGE_LOOP('',(#198,#199,#200,#201,#202));
#45=EDGE_LOOP('',(#203,#204,#205,#206,#207));
#46=EDGE_LOOP('',(#208,#209,#210,#211,#212));
#47=EDGE_LOOP('',(#213,#214,#215,#216));
#48=EDGE_LOOP('',(#217,#218,#219,#220));
#49=EDGE_LOOP('',(#221,#222,#223,#224,#225,#226,#227,#228));
#50=EDGE_LOOP('',(#229,#230));
#51=EDGE_LOOP('',(#231,#232));
#52=EDGE_LOOP('',(#233,#234));
#53=EDGE_LOOP('',(#235,#236));
#54=EDGE_LOOP('',(#237,#238,#239,#240));
#55=EDGE_LOOP('',(#241,#242,#243,#244));
#56=EDGE_LOOP('',(#245,#246,#247,#248));
#57=EDGE_LOOP('',(#249,#250,#251,#252));
#58=EDGE_LOOP('',(#253,#254,#255,#256));
#59=EDGE_LOOP('',(#257,#258,#259,#260));
#60=EDGE_LOOP('',(#261,#262,#263,#264,#265,#266,#267,#268));
#61=EDGE_LOOP('',(#269));
#62=EDGE_LOOP('',(#270));
#63=EDGE_LOOP('',(#271));
#64=EDGE_LOOP('',(#272));
#65=LINE('',#446,#85);
#66=LINE('',#454,#86);
#67=LINE('',#462,#87);
#68=LINE('',#470,#88);
#69=LINE('',#477,#89);
#70=LINE('',#480,#90);
#71=LINE('',#483,#91);
#72=LINE('',#485,#92);
#73=LINE('',#486,#93);
#74=LINE('',#489,#94);
#75=LINE('',#493,#95);
#76=LINE('',#497,#96);
#77=LINE('',#501,#97);
#78=LINE('',#505,#98);
#79=LINE('',#506,#99);
#80=LINE('',#509,#100);
#81=LINE('',#513,#101);
#82=LINE('',#514,#102);
#83=LINE('',#517,#103);
#84=LINE('',#520,#104);
#85=VECTOR('',#357,4.5);
#86=VECTOR('',#366,4.5);
#87=VECTOR('',#375,4.5);
#88=VECTOR('',#384,4.5);
#89=VECTOR('',#391,10.);
#90=VECTOR('',#394,10.);
#91=VECTOR('',#397,10.);
#92=VECTOR('',#398,10.);
#93=VECTOR('',#399,10.);
#94=VECTOR('',#402,10.);
#95=VECTOR('',#405,10.);
#96=VECTOR('',#408,10.);
#97=VECTOR('',#413,10.);
#98=VECTOR('',#418,10.);
#99=VECTOR('',#419,10.);
#100=VECTOR('',#422,10.);
#101=VECTOR('',#427,10.);
#102=VECTOR('',#428,10.);
#103=VECTOR('',#431,10.);
#104=VECTOR('',#436,10.);
#105=CIRCLE('',#316,4.5);
#106=CIRCLE('',#317,4.5);
#107=CIRCLE('',#318,4.5);
#108=CIRCLE('',#320,4.5);
#109=CIRCLE('',#321,4.5);
#110=CIRCLE('',#322,4.5);
#111=CIRCLE('',#324,4.5);
#112=CIRCLE('',#325,4.5);
#113=CIRCLE('',#326,4.5);
#114=CIRCLE('',#328,4.5);
#115=CIRCLE('',#329,4.5);
#116=CIRCLE('',#330,4.5);
#117=CIRCLE('',#332,4.);
#118=CIRCLE('',#333,4.);
#119=CIRCLE('',#336,4.);
#120=CIRCLE('',#337,4.);
#121=CIRCLE('',#338,4.);
#122=CIRCLE('',#340,4.);
#123=CIRCLE('',#343,4.);
#124=CIRCLE('',#346,4.);
#125=VERTEX_POINT('',#441);
#126=VERTEX_POINT('',#442);
#127=VERTEX_POINT('',#445);
#128=VERTEX_POINT('',#449);
#129=VERTEX_POINT('',#450);
#130=VERTEX_POINT('',#453);
#131=VERTEX_POINT('',#457);
#132=VERTEX_POINT('',#458);
#133=VERTEX_POINT('',#461);
#134=VERTEX_POINT('',#465);
#135=VERTEX_POINT('',#466);
#136=VERTEX_POINT('',#469);
#137=VERTEX_POINT('',#473);
#138=VERTEX_POINT('',#474);
#139=VERTEX_POINT('',#476);
#140=VERTEX_POINT('',#478);
#141=VERTEX_POINT('',#482);
#142=VERTEX_POINT('',#484);
#143=VERTEX_POINT('',#488);
#144=VERTEX_POINT('',#490);
#145=VERTEX_POINT('',#492);
#146=VERTEX_POINT('',#494);
#147=VERTEX_POINT('',#496);
#148=VERTEX_POINT('',#500);
#149=VERTEX_POINT('',#504);
#150=VERTEX_POINT('',#508);
#151=VERTEX_POINT('',#512);
#152=VERTEX_POINT('',#516);
#153=EDGE_CURVE('',#125,#126,#105,.T.);
#154=EDGE_CURVE('',#126,#125,#106,.T.);
#155=EDGE_CURVE('',#126,#127,#65,.T.);
#156=EDGE_CURVE('',#127,#127,#107,.T.);
#157=EDGE_CURVE('',#128,#129,#108,.T.);
#158=EDGE_CURVE('',#129,#128,#109,.T.);
#159=EDGE_CURVE('',#129,#130,#66,.T.);
#160=EDGE_CURVE('',#130,#130,#110,.T.);
#161=EDGE_CURVE('',#131,#132,#111,.T.);
#162=EDGE_CURVE('',#132,#131,#112,.T.);
#163=EDGE_CURVE('',#132,#133,#67,.T.);
#164=EDGE_CURVE('',#133,#133,#113,.T.);
#165=EDGE_CURVE('',#134,#135,#114,.T.);
#166=EDGE_CURVE('',#135,#134,#115,.T.);
#167=EDGE_CURVE('',#135,#136,#68,.T.);
#168=EDGE_CURVE('',#136,#136,#116,.T.);
#169=EDGE_CURVE('',#137,#138,#117,.T.);
#170=EDGE_CURVE('',#138,#139,#69,.T.);
#171=EDGE_CURVE('',#139,#140,#118,.T.);
#172=EDGE_CURVE('',#140,#137,#70,.T.);
#173=EDGE_CURVE('',#141,#138,#71,.T.);
#174=EDGE_CURVE('',#142,#141,#72,.T.);
#175=EDGE_CURVE('',#142,#139,#73,.T.);
#176=EDGE_CURVE('',#137,#143,#74,.T.);
#177=EDGE_CURVE('',#144,#143,#119,.T.);
#178=EDGE_CURVE('',#144,#145,#75,.T.);
#179=EDGE_CURVE('',#146,#145,#120,.T.);
#180=EDGE_CURVE('',#146,#147,#76,.T.);
#181=EDGE_CURVE('',#141,#147,#121,.T.);
#182=EDGE_CURVE('',#147,#148,#77,.T.);
#183=EDGE_CURVE('',#148,#142,#122,.T.);
#184=EDGE_CURVE('',#149,#146,#78,.T.);
#185=EDGE_CURVE('',#149,#148,#79,.T.);
#186=EDGE_CURVE('',#145,#150,#80,.T.);
#187=EDGE_CURVE('',#150,#149,#123,.T.);
#188=EDGE_CURVE('',#151,#144,#81,.T.);
#189=EDGE_CURVE('',#151,#150,#82,.T.);
#190=EDGE_CURVE('',#143,#152,#83,.T.);
#191=EDGE_CURVE('',#152,#151,#124,.T.);
#192=EDGE_CURVE('',#140,#152,#84,.T.);
#193=ORIENTED_EDGE('',*,*,#153,.F.);
#194=ORIENTED_EDGE('',*,*,#154,.F.);
#195=ORIENTED_EDGE('',*,*,#155,.T.);
#196=ORIENTED_EDGE('',*,*,#156,.F.);
#197=ORIENTED_EDGE('',*,*,#155,.F.);
#198=ORIENTED_EDGE('',*,*,#157,.F.);
#199=ORIENTED_EDGE('',*,*,#158,.F.);
#200=ORIENTED_EDGE('',*,*,#159,.T.);
#201=ORIENTED_EDGE('',*,*,#160,.F.);
#202=ORIENTED_EDGE('',*,*,#159,.F.);
#203=ORIENTED_EDGE('',*,*,#161,.F.);
#204=ORIENTED_EDGE('',*,*,#162,.F.);
#205=ORIENTED_EDGE('',*,*,#163,.T.);
#206=ORIENTED_EDGE('',*,*,#164,.F.);
#207=ORIENTED_EDGE('',*,*,#163,.F.);
#208=ORIENTED_EDGE('',*,*,#165,.F.);
#209=ORIENTED_EDGE('',*,*,#166,.F.);
#210=ORIENTED_EDGE('',*,*,#167,.T.);
#211=ORIENTED_EDGE('',*,*,#168,.F.);
#212=ORIENTED_EDGE('',*,*,#167,.F.);
#213=ORIENTED_EDGE('',*,*,#169,.T.);
#214=ORIENTED_EDGE('',*,*,#170,.T.);
#215=ORIENTED_EDGE('',*,*,#171,.T.);
#216=ORIENTED_EDGE('',*,*,#172,.T.);
#217=ORIENTED_EDGE('',*,*,#170,.F.);
#218=ORIENTED_EDGE('',*,*,#173,.F.);
#219=ORIENTED_EDGE('',*,*,#174,.F.);
#220=ORIENTED_EDGE('',*,*,#175,.T.);
#221=ORIENTED_EDGE('',*,*,#169,.F.);
#222=ORIENTED_EDGE('',*,*,#176,.T.);
#223=ORIENTED_EDGE('',*,*,#177,.F.);
#224=ORIENTED_EDGE('',*,*,#178,.T.);
#225=ORIENTED_EDGE('',*,*,#179,.F.);
#226=ORIENTED_EDGE('',*,*,#180,.T.);
#227=ORIENTED_EDGE('',*,*,#181,.F.);
#228=ORIENTED_EDGE('',*,*,#173,.T.);
#229=ORIENTED_EDGE('',*,*,#153,.T.);
#230=ORIENTED_EDGE('',*,*,#154,.T.);
#231=ORIENTED_EDGE('',*,*,#157,.T.);
#232=ORIENTED_EDGE('',*,*,#158,.T.);
#233=ORIENTED_EDGE('',*,*,#161,.T.);
#234=ORIENTED_EDGE('',*,*,#162,.T.);
#235=ORIENTED_EDGE('',*,*,#165,.T.);
#236=ORIENTED_EDGE('',*,*,#166,.T.);
#237=ORIENTED_EDGE('',*,*,#181,.T.);
#238=ORIENTED_EDGE('',*,*,#182,.T.);
#239=ORIENTED_EDGE('',*,*,#183,.T.);
#240=ORIENTED_EDGE('',*,*,#174,.T.);
#241=ORIENTED_EDGE('',*,*,#182,.F.);
#242=ORIENTED_EDGE('',*,*,#180,.F.);
#243=ORIENTED_EDGE('',*,*,#184,.F.);
#244=ORIENTED_EDGE('',*,*,#185,.T.);
#245=ORIENTED_EDGE('',*,*,#179,.T.);
#246=ORIENTED_EDGE('',*,*,#186,.T.);
#247=ORIENTED_EDGE('',*,*,#187,.T.);
#248=ORIENTED_EDGE('',*,*,#184,.T.);
#249=ORIENTED_EDGE('',*,*,#186,.F.);
#250=ORIENTED_EDGE('',*,*,#178,.F.);
#251=ORIENTED_EDGE('',*,*,#188,.F.);
#252=ORIENTED_EDGE('',*,*,#189,.T.);
#253=ORIENTED_EDGE('',*,*,#177,.T.);
#254=ORIENTED_EDGE('',*,*,#190,.T.);
#255=ORIENTED_EDGE('',*,*,#191,.T.);
#256=ORIENTED_EDGE('',*,*,#188,.T.);
#257=ORIENTED_EDGE('',*,*,#172,.F.);
#258=ORIENTED_EDGE('',*,*,#192,.T.);
#259=ORIENTED_EDGE('',*,*,#190,.F.);
#260=ORIENTED_EDGE('',*,*,#176,.F.);
#261=ORIENTED_EDGE('',*,*,#171,.F.);
#262=ORIENTED_EDGE('',*,*,#175,.F.);
#263=ORIENTED_EDGE('',*,*,#183,.F.);
#264=ORIENTED_EDGE('',*,*,#185,.F.);
#265=ORIENTED_EDGE('',*,*,#187,.F.);
#266=ORIENTED_EDGE('',*,*,#189,.F.);
#267=ORIENTED_EDGE('',*,*,#191,.F.);
#268=ORIENTED_EDGE('',*,*,#192,.F.);
#269=ORIENTED_EDGE('',*,*,#156,.T.);
#270=ORIENTED_EDGE('',*,*,#160,.T.);
#271=ORIENTED_EDGE('',*,*,#164,.T.);
#272=ORIENTED_EDGE('',*,*,#168,.T.);
#273=CYLINDRICAL_SURFACE('',#315,4.5);
#274=CYLINDRICAL_SURFACE('',#319,4.5);
#275=CYLINDRICAL_SURFACE('',#323,4.5);
#276=CYLINDRICAL_SURFACE('',#327,4.5);
#277=CYLINDRICAL_SURFACE('',#331,4.);
#278=CYLINDRICAL_SURFACE('',#339,4.);
#279=CYLINDRICAL_SURFACE('',#342,4.);
#280=CYLINDRICAL_SURFACE('',#345,4.);
#281=ADVANCED_FACE('',(#29),#273,.F.);
#282=ADVANCED_FACE('',(#30),#274,.F.);
#283=ADVANCED_FACE('',(#31),#275,.F.);
#284=ADVANCED_FACE('',(#32),#276,.F.);
#285=ADVANCED_FACE('',(#33),#277,.T.);
#286=ADVANCED_FACE('',(#34),#23,.T.);
#287=ADVANCED_FACE('',(#35,#15,#16,#17,#18),#24,.T.);
#288=ADVANCED_FACE('',(#36),#278,.T.);
#289=ADVANCED_FACE('',(#37),#25,.T.);
#290=ADVANCED_FACE('',(#38),#279,.T.);
#291=ADVANCED_FACE('',(#39),#26,.T.);
#292=ADVANCED_FACE('',(#40),#280,.T.);
#293=ADVANCED_FACE('',(#41),#27,.T.);
#294=ADVANCED_FACE('',(#42,#19,#20,#21,#22),#28,.F.);
#295=CLOSED_SHELL('',(#281,#282,#283,#284,#285,#286,#287,#288,#289,#290,
#291,#292,#293,#294));
#296=DERIVED_UNIT_ELEMENT(#298,1.);
#297=DERIVED_UNIT_ELEMENT(#527,3.);
#298=(
MASS_UNIT()
NAMED_UNIT(*)
SI_UNIT($,.GRAM.)
);
#299=DERIVED_UNIT((#296,#297));
#300=MEASURE_REPRESENTATION_ITEM('density measure',
POSITIVE_RATIO_MEASURE(7.85),#299);
#301=PROPERTY_DEFINITION_REPRESENTATION(#306,#303);
#302=PROPERTY_DEFINITION_REPRESENTATION(#307,#304);
#303=REPRESENTATION('material name',(#305),#524);
#304=REPRESENTATION('density',(#300),#524);
#305=DESCRIPTIVE_REPRESENTATION_ITEM('Stahl, pulverbeschichtet schwarz',
'Stahl, pulverbeschichtet schwarz');
#306=PROPERTY_DEFINITION('material property','material name',#534);
#307=PROPERTY_DEFINITION('material property','density of part',#534);
#308=DATE_TIME_ROLE('creation_date');
#309=APPLIED_DATE_AND_TIME_ASSIGNMENT(#310,#308,(#534));
#310=DATE_AND_TIME(#311,#312);
#311=CALENDAR_DATE(2022,16,8);
#312=LOCAL_TIME(8,35,19.,#313);
#313=COORDINATED_UNIVERSAL_TIME_OFFSET(0,0,.BEHIND.);
#314=AXIS2_PLACEMENT_3D('placement',#439,#349,#350);
#315=AXIS2_PLACEMENT_3D('',#440,#351,#352);
#316=AXIS2_PLACEMENT_3D('',#443,#353,#354);
#317=AXIS2_PLACEMENT_3D('',#444,#355,#356);
#318=AXIS2_PLACEMENT_3D('',#447,#358,#359);
#319=AXIS2_PLACEMENT_3D('',#448,#360,#361);
#320=AXIS2_PLACEMENT_3D('',#451,#362,#363);
#321=AXIS2_PLACEMENT_3D('',#452,#364,#365);
#322=AXIS2_PLACEMENT_3D('',#455,#367,#368);
#323=AXIS2_PLACEMENT_3D('',#456,#369,#370);
#324=AXIS2_PLACEMENT_3D('',#459,#371,#372);
#325=AXIS2_PLACEMENT_3D('',#460,#373,#374);
#326=AXIS2_PLACEMENT_3D('',#463,#376,#377);
#327=AXIS2_PLACEMENT_3D('',#464,#378,#379);
#328=AXIS2_PLACEMENT_3D('',#467,#380,#381);
#329=AXIS2_PLACEMENT_3D('',#468,#382,#383);
#330=AXIS2_PLACEMENT_3D('',#471,#385,#386);
#331=AXIS2_PLACEMENT_3D('',#472,#387,#388);
#332=AXIS2_PLACEMENT_3D('',#475,#389,#390);
#333=AXIS2_PLACEMENT_3D('',#479,#392,#393);
#334=AXIS2_PLACEMENT_3D('',#481,#395,#396);
#335=AXIS2_PLACEMENT_3D('',#487,#400,#401);
#336=AXIS2_PLACEMENT_3D('',#491,#403,#404);
#337=AXIS2_PLACEMENT_3D('',#495,#406,#407);
#338=AXIS2_PLACEMENT_3D('',#498,#409,#410);
#339=AXIS2_PLACEMENT_3D('',#499,#411,#412);
#340=AXIS2_PLACEMENT_3D('',#502,#414,#415);
#341=AXIS2_PLACEMENT_3D('',#503,#416,#417);
#342=AXIS2_PLACEMENT_3D('',#507,#420,#421);
#343=AXIS2_PLACEMENT_3D('',#510,#423,#424);
#344=AXIS2_PLACEMENT_3D('',#511,#425,#426);
#345=AXIS2_PLACEMENT_3D('',#515,#429,#430);
#346=AXIS2_PLACEMENT_3D('',#518,#432,#433);
#347=AXIS2_PLACEMENT_3D('',#519,#434,#435);
#348=AXIS2_PLACEMENT_3D('',#521,#437,#438);
#349=DIRECTION('axis',(0.,0.,1.));
#350=DIRECTION('refdir',(1.,0.,0.));
#351=DIRECTION('center_axis',(0.,0.,1.));
#352=DIRECTION('ref_axis',(1.,0.,0.));
#353=DIRECTION('center_axis',(0.,0.,-1.));
#354=DIRECTION('ref_axis',(1.,0.,0.));
#355=DIRECTION('center_axis',(0.,0.,-1.));
#356=DIRECTION('ref_axis',(1.,0.,0.));
#357=DIRECTION('',(0.,0.,-1.));
#358=DIRECTION('center_axis',(0.,0.,1.));
#359=DIRECTION('ref_axis',(1.,0.,0.));
#360=DIRECTION('center_axis',(0.,0.,1.));
#361=DIRECTION('ref_axis',(1.,0.,0.));
#362=DIRECTION('center_axis',(0.,0.,-1.));
#363=DIRECTION('ref_axis',(1.,0.,0.));
#364=DIRECTION('center_axis',(0.,0.,-1.));
#365=DIRECTION('ref_axis',(1.,0.,0.));
#366=DIRECTION('',(0.,0.,-1.));
#367=DIRECTION('center_axis',(0.,0.,1.));
#368=DIRECTION('ref_axis',(1.,0.,0.));
#369=DIRECTION('center_axis',(0.,0.,1.));
#370=DIRECTION('ref_axis',(1.,0.,0.));
#371=DIRECTION('center_axis',(0.,0.,-1.));
#372=DIRECTION('ref_axis',(1.,0.,0.));
#373=DIRECTION('center_axis',(0.,0.,-1.));
#374=DIRECTION('ref_axis',(1.,0.,0.));
#375=DIRECTION('',(0.,0.,-1.));
#376=DIRECTION('center_axis',(0.,0.,1.));
#377=DIRECTION('ref_axis',(1.,0.,0.));
#378=DIRECTION('center_axis',(0.,0.,1.));
#379=DIRECTION('ref_axis',(1.,0.,0.));
#380=DIRECTION('center_axis',(0.,0.,-1.));
#381=DIRECTION('ref_axis',(1.,0.,0.));
#382=DIRECTION('center_axis',(0.,0.,-1.));
#383=DIRECTION('ref_axis',(1.,0.,0.));
#384=DIRECTION('',(0.,0.,-1.));
#385=DIRECTION('center_axis',(0.,0.,1.));
#386=DIRECTION('ref_axis',(1.,0.,0.));
#387=DIRECTION('center_axis',(0.,0.,1.));
#388=DIRECTION('ref_axis',(-0.707106781186548,0.707106781186548,0.));
#389=DIRECTION('center_axis',(0.,0.,-1.));
#390=DIRECTION('ref_axis',(-0.707106781186548,0.707106781186548,0.));
#391=DIRECTION('',(0.,0.,-1.));
#392=DIRECTION('center_axis',(0.,0.,1.));
#393=DIRECTION('ref_axis',(-0.707106781186548,0.707106781186548,0.));
#394=DIRECTION('',(0.,0.,1.));
#395=DIRECTION('center_axis',(0.,1.,0.));
#396=DIRECTION('ref_axis',(-1.,0.,0.));
#397=DIRECTION('',(-1.,0.,0.));
#398=DIRECTION('',(0.,0.,1.));
#399=DIRECTION('',(-1.,0.,0.));
#400=DIRECTION('center_axis',(0.,0.,1.));
#401=DIRECTION('ref_axis',(1.,0.,0.));
#402=DIRECTION('',(0.,-1.,0.));
#403=DIRECTION('center_axis',(0.,0.,-1.));
#404=DIRECTION('ref_axis',(-0.707106781186548,-0.707106781186548,0.));
#405=DIRECTION('',(1.,-1.66533453693774E-16,0.));
#406=DIRECTION('center_axis',(0.,0.,-1.));
#407=DIRECTION('ref_axis',(0.707106781186548,-0.707106781186548,0.));
#408=DIRECTION('',(1.11022302462516E-16,1.,0.));
#409=DIRECTION('center_axis',(0.,0.,-1.));
#410=DIRECTION('ref_axis',(0.707106781186548,0.707106781186548,0.));
#411=DIRECTION('center_axis',(0.,0.,1.));
#412=DIRECTION('ref_axis',(0.707106781186548,0.707106781186548,0.));
#413=DIRECTION('',(0.,0.,-1.));
#414=DIRECTION('center_axis',(0.,0.,1.));
#415=DIRECTION('ref_axis',(0.707106781186548,0.707106781186548,0.));
#416=DIRECTION('center_axis',(1.,-1.11022302462516E-16,0.));
#417=DIRECTION('ref_axis',(1.11022302462516E-16,1.,0.));
#418=DIRECTION('',(0.,0.,1.));
#419=DIRECTION('',(1.11022302462516E-16,1.,0.));
#420=DIRECTION('center_axis',(0.,0.,1.));
#421=DIRECTION('ref_axis',(0.707106781186548,-0.707106781186548,0.));
#422=DIRECTION('',(0.,0.,-1.));
#423=DIRECTION('center_axis',(0.,0.,1.));
#424=DIRECTION('ref_axis',(0.707106781186548,-0.707106781186548,0.));
#425=DIRECTION('center_axis',(-1.66533453693774E-16,-1.,0.));
#426=DIRECTION('ref_axis',(1.,-1.66533453693774E-16,0.));
#427=DIRECTION('',(0.,0.,1.));
#428=DIRECTION('',(1.,-1.66533453693774E-16,0.));
#429=DIRECTION('center_axis',(0.,0.,1.));
#430=DIRECTION('ref_axis',(-0.707106781186548,-0.707106781186548,0.));
#431=DIRECTION('',(0.,0.,-1.));
#432=DIRECTION('center_axis',(0.,0.,1.));
#433=DIRECTION('ref_axis',(-0.707106781186548,-0.707106781186548,0.));
#434=DIRECTION('center_axis',(-1.,0.,0.));
#435=DIRECTION('ref_axis',(0.,-1.,0.));
#436=DIRECTION('',(0.,-1.,0.));
#437=DIRECTION('center_axis',(0.,0.,1.));
#438=DIRECTION('ref_axis',(1.,0.,0.));
#439=CARTESIAN_POINT('',(0.,0.,0.));
#440=CARTESIAN_POINT('Origin',(-60.,-60.,-223.294056484036));
#441=CARTESIAN_POINT('',(-55.5,-60.,3.));
#442=CARTESIAN_POINT('',(-64.5,-60.,3.00000000000001));
#443=CARTESIAN_POINT('Origin',(-60.,-60.,3.00000000000001));
#444=CARTESIAN_POINT('Origin',(-60.,-60.,3.00000000000001));
#445=CARTESIAN_POINT('',(-64.5,-60.,0.));
#446=CARTESIAN_POINT('',(-64.5,-60.,-223.294056484036));
#447=CARTESIAN_POINT('Origin',(-60.,-60.,0.));
#448=CARTESIAN_POINT('Origin',(-60.,60.,-223.294056484036));
#449=CARTESIAN_POINT('',(-55.5,60.,3.));
#450=CARTESIAN_POINT('',(-64.5,60.,3.00000000000001));
#451=CARTESIAN_POINT('Origin',(-60.,60.,3.00000000000001));
#452=CARTESIAN_POINT('Origin',(-60.,60.,3.00000000000001));
#453=CARTESIAN_POINT('',(-64.5,60.,0.));
#454=CARTESIAN_POINT('',(-64.5,60.,-223.294056484036));
#455=CARTESIAN_POINT('Origin',(-60.,60.,0.));
#456=CARTESIAN_POINT('Origin',(60.,60.,-223.294056484036));
#457=CARTESIAN_POINT('',(64.5,60.,3.));
#458=CARTESIAN_POINT('',(55.5,60.,3.00000000000001));
#459=CARTESIAN_POINT('Origin',(60.,60.,3.00000000000001));
#460=CARTESIAN_POINT('Origin',(60.,60.,3.00000000000001));
#461=CARTESIAN_POINT('',(55.5,60.,0.));
#462=CARTESIAN_POINT('',(55.5,60.,-223.294056484036));
#463=CARTESIAN_POINT('Origin',(60.,60.,0.));
#464=CARTESIAN_POINT('Origin',(60.,-60.,-223.294056484036));
#465=CARTESIAN_POINT('',(64.5,-60.,3.));
#466=CARTESIAN_POINT('',(55.5,-60.,3.00000000000001));
#467=CARTESIAN_POINT('Origin',(60.,-60.,3.00000000000001));
#468=CARTESIAN_POINT('Origin',(60.,-60.,3.00000000000001));
#469=CARTESIAN_POINT('',(55.5,-60.,0.));
#470=CARTESIAN_POINT('',(55.5,-60.,-223.294056484036));
#471=CARTESIAN_POINT('Origin',(60.,-60.,0.));
#472=CARTESIAN_POINT('Origin',(-76.,76.,0.));
#473=CARTESIAN_POINT('',(-80.,76.,3.));
#474=CARTESIAN_POINT('',(-76.,80.,3.));
#475=CARTESIAN_POINT('Origin',(-76.,76.,3.));
#476=CARTESIAN_POINT('',(-76.,80.,0.));
#477=CARTESIAN_POINT('',(-76.,80.,0.));
#478=CARTESIAN_POINT('',(-80.,76.,0.));
#479=CARTESIAN_POINT('Origin',(-76.,76.,0.));
#480=CARTESIAN_POINT('',(-80.,76.,0.));
#481=CARTESIAN_POINT('Origin',(80.,80.,0.));
#482=CARTESIAN_POINT('',(76.,80.,3.));
#483=CARTESIAN_POINT('',(80.,80.,3.));
#484=CARTESIAN_POINT('',(76.,80.,0.));
#485=CARTESIAN_POINT('',(76.,80.,0.));
#486=CARTESIAN_POINT('',(80.,80.,0.));
#487=CARTESIAN_POINT('Origin',(0.,0.,3.));
#488=CARTESIAN_POINT('',(-80.,-76.,3.));
#489=CARTESIAN_POINT('',(-80.,80.,3.));
#490=CARTESIAN_POINT('',(-76.,-80.,3.));
#491=CARTESIAN_POINT('Origin',(-76.,-76.,3.));
#492=CARTESIAN_POINT('',(76.,-80.,3.));
#493=CARTESIAN_POINT('',(-80.,-80.,3.));
#494=CARTESIAN_POINT('',(80.,-76.,3.));
#495=CARTESIAN_POINT('Origin',(76.,-76.,3.));
#496=CARTESIAN_POINT('',(80.,76.,3.));
#497=CARTESIAN_POINT('',(80.,-80.,3.));
#498=CARTESIAN_POINT('Origin',(76.,76.,3.));
#499=CARTESIAN_POINT('Origin',(76.,76.,0.));
#500=CARTESIAN_POINT('',(80.,76.,0.));
#501=CARTESIAN_POINT('',(80.,76.,0.));
#502=CARTESIAN_POINT('Origin',(76.,76.,0.));
#503=CARTESIAN_POINT('Origin',(80.,-80.,0.));
#504=CARTESIAN_POINT('',(80.,-76.,0.));
#505=CARTESIAN_POINT('',(80.,-76.,0.));
#506=CARTESIAN_POINT('',(80.,-80.,0.));
#507=CARTESIAN_POINT('Origin',(76.,-76.,0.));
#508=CARTESIAN_POINT('',(76.,-80.,0.));
#509=CARTESIAN_POINT('',(76.,-80.,0.));
#510=CARTESIAN_POINT('Origin',(76.,-76.,0.));
#511=CARTESIAN_POINT('Origin',(-80.,-80.,0.));
#512=CARTESIAN_POINT('',(-76.,-80.,0.));
#513=CARTESIAN_POINT('',(-76.,-80.,0.));
#514=CARTESIAN_POINT('',(-80.,-80.,0.));
#515=CARTESIAN_POINT('Origin',(-76.,-76.,0.));
#516=CARTESIAN_POINT('',(-80.,-76.,0.));
#517=CARTESIAN_POINT('',(-80.,-76.,0.));
#518=CARTESIAN_POINT('Origin',(-76.,-76.,0.));
#519=CARTESIAN_POINT('Origin',(-80.,80.,0.));
#520=CARTESIAN_POINT('',(-80.,80.,0.));
#521=CARTESIAN_POINT('Origin',(-3.33066907387547E-15,-3.33066907387547E-15,
0.));
#522=UNCERTAINTY_MEASURE_WITH_UNIT(LENGTH_MEASURE(0.01),#526,
'DISTANCE_ACCURACY_VALUE',
'Maximum model space distance between geometric entities at asserted c
onnectivities');
#523=UNCERTAINTY_MEASURE_WITH_UNIT(LENGTH_MEASURE(0.01),#526,
'DISTANCE_ACCURACY_VALUE',
'Maximum model space distance between geometric entities at asserted c
onnectivities');
#524=(
GEOMETRIC_REPRESENTATION_CONTEXT(3)
GLOBAL_UNCERTAINTY_ASSIGNED_CONTEXT((#522))
GLOBAL_UNIT_ASSIGNED_CONTEXT((#526,#529,#528))
REPRESENTATION_CONTEXT('','3D')
);
#525=(
GEOMETRIC_REPRESENTATION_CONTEXT(3)
GLOBAL_UNCERTAINTY_ASSIGNED_CONTEXT((#523))
GLOBAL_UNIT_ASSIGNED_CONTEXT((#526,#529,#528))
REPRESENTATION_CONTEXT('','3D')
);
#526=(
LENGTH_UNIT()
NAMED_UNIT(*)
SI_UNIT(.MILLI.,.METRE.)
);
#527=(
LENGTH_UNIT()
NAMED_UNIT(*)
SI_UNIT(.CENTI.,.METRE.)
);
#528=(
NAMED_UNIT(*)
SI_UNIT($,.STERADIAN.)
SOLID_ANGLE_UNIT()
);
#529=(
NAMED_UNIT(*)
PLANE_ANGLE_UNIT()
SI_UNIT($,.RADIAN.)
);
#530=SHAPE_DEFINITION_REPRESENTATION(#531,#532);
#531=PRODUCT_DEFINITION_SHAPE('',$,#534);
#532=SHAPE_REPRESENTATION('',(#314),#524);
#533=PRODUCT_DEFINITION_CONTEXT('part definition',#538,'design');
#534=PRODUCT_DEFINITION('13917',
'13917_KriTec_Abdeckkappe_8_160x160_grau_aehnl_RAL_7042_inkl_Bef',#535,
#533);
#535=PRODUCT_DEFINITION_FORMATION('',$,#540);
#536=PRODUCT_RELATED_PRODUCT_CATEGORY(
'13917_KriTec_Abdeckkappe_8_160x160_grau_aehnl_RAL_7042_inkl_Bef',
'13917_KriTec_Abdeckkappe_8_160x160_grau_aehnl_RAL_7042_inkl_Bef',(#540));
#537=APPLICATION_PROTOCOL_DEFINITION('international standard',
'automotive_design',2009,#538);
#538=APPLICATION_CONTEXT(
'Core Data for Automotive Mechanical Design Process');
#539=PRODUCT_CONTEXT('part definition',#538,'mechanical');
#540=PRODUCT('13917',
'13917_KriTec_Abdeckkappe_8_160x160_grau_aehnl_RAL_7042_inkl_Bef',
'KriTec Abdeckkappe 8 160x160 St, grau \X\E4hnl. RAL 7042 inkl. Befest
igungssatz',(#539));
#541=PRESENTATION_STYLE_ASSIGNMENT((#542));
#542=SURFACE_STYLE_USAGE(.BOTH.,#543);
#543=SURFACE_SIDE_STYLE('',(#544));
#544=SURFACE_STYLE_FILL_AREA(#545);
#545=FILL_AREA_STYLE('',(#546));
#546=FILL_AREA_STYLE_COLOUR('',#547);
#547=COLOUR_RGB('',0.56078431372549,0.588235294117647,0.6);
ENDSEC;
END-ISO-10303-21;
