ISO-10303-21;
HEADER;
/* Generated by software containing ST-Developer
 * from STEP Tools, Inc. (www.steptools.com) 
 */

FILE_DESCRIPTION(
/* description */ (
'KriTec_Aluwinkel_5_20x20x20x3_schwarz_pulverbeschichtet'),
/* implementation_level */ '2;1');

FILE_NAME(
/* name */ 
'S:\\Bilder_neu\\13695_KriTec_Aluwinkel_5_20x20x20x3_schwarz_pulverbes
chichtet\\Inventordateien\\13695_KriTec_Aluwinkel_5_20x20x20x3_schwarz
_pulverbeschichtet.stp',
/* time_stamp */ '2019-01-29T14:54:38+01:00',
/* author */ ('jendrek'),
/* organization */ (''),
/* preprocessor_version */ 'ST-DEVELOPER v17',
/* originating_system */ 'Autodesk Inventor 2018',
/* authorisation */ '');

FILE_SCHEMA (('AUTOMOTIVE_DESIGN { 1 0 10303 214 3 1 1 }'));
ENDSEC;

DATA;
#10=MECHANICAL_DESIGN_GEOMETRIC_PRESENTATION_REPRESENTATION('',(#13),#353);
#11=SHAPE_REPRESENTATION_RELATIONSHIP('SRR','None',#360,#12);
#12=ADVANCED_BREP_SHAPE_REPRESENTATION('',(#14),#352);
#13=STYLED_ITEM('',(#369),#14);
#14=MANIFOLD_SOLID_BREP('Volumenk\X\F6rper4',#205);
#15=FACE_BOUND('',#42,.T.);
#16=FACE_BOUND('',#44,.T.);
#17=FACE_BOUND('',#47,.T.);
#18=FACE_BOUND('',#49,.T.);
#19=PLANE('',#233);
#20=PLANE('',#234);
#21=PLANE('',#235);
#22=PLANE('',#236);
#23=PLANE('',#237);
#24=PLANE('',#238);
#25=PLANE('',#239);
#26=PLANE('',#240);
#27=FACE_OUTER_BOUND('',#37,.T.);
#28=FACE_OUTER_BOUND('',#38,.T.);
#29=FACE_OUTER_BOUND('',#39,.T.);
#30=FACE_OUTER_BOUND('',#40,.T.);
#31=FACE_OUTER_BOUND('',#41,.T.);
#32=FACE_OUTER_BOUND('',#43,.T.);
#33=FACE_OUTER_BOUND('',#45,.T.);
#34=FACE_OUTER_BOUND('',#46,.T.);
#35=FACE_OUTER_BOUND('',#48,.T.);
#36=FACE_OUTER_BOUND('',#50,.T.);
#37=EDGE_LOOP('',(#141,#142,#143,#144,#145));
#38=EDGE_LOOP('',(#146,#147,#148,#149,#150));
#39=EDGE_LOOP('',(#151,#152,#153,#154,#155,#156));
#40=EDGE_LOOP('',(#157,#158,#159,#160));
#41=EDGE_LOOP('',(#161,#162,#163,#164));
#42=EDGE_LOOP('',(#165));
#43=EDGE_LOOP('',(#166,#167,#168,#169));
#44=EDGE_LOOP('',(#170));
#45=EDGE_LOOP('',(#171,#172,#173,#174));
#46=EDGE_LOOP('',(#175,#176,#177,#178));
#47=EDGE_LOOP('',(#179,#180));
#48=EDGE_LOOP('',(#181,#182,#183,#184));
#49=EDGE_LOOP('',(#185,#186));
#50=EDGE_LOOP('',(#187,#188,#189,#190,#191,#192));
#51=LINE('',#302,#71);
#52=LINE('',#310,#72);
#53=LINE('',#315,#73);
#54=LINE('',#317,#74);
#55=LINE('',#319,#75);
#56=LINE('',#321,#76);
#57=LINE('',#323,#77);
#58=LINE('',#324,#78);
#59=LINE('',#327,#79);
#60=LINE('',#329,#80);
#61=LINE('',#330,#81);
#62=LINE('',#333,#82);
#63=LINE('',#334,#83);
#64=LINE('',#337,#84);
#65=LINE('',#338,#85);
#66=LINE('',#341,#86);
#67=LINE('',#342,#87);
#68=LINE('',#345,#88);
#69=LINE('',#346,#89);
#70=LINE('',#348,#90);
#71=VECTOR('',#249,2.75);
#72=VECTOR('',#258,2.75);
#73=VECTOR('',#263,10.);
#74=VECTOR('',#264,10.);
#75=VECTOR('',#265,10.);
#76=VECTOR('',#266,10.);
#77=VECTOR('',#267,10.);
#78=VECTOR('',#268,10.);
#79=VECTOR('',#271,10.);
#80=VECTOR('',#272,10.);
#81=VECTOR('',#273,10.);
#82=VECTOR('',#276,10.);
#83=VECTOR('',#277,10.);
#84=VECTOR('',#280,10.);
#85=VECTOR('',#281,10.);
#86=VECTOR('',#284,10.);
#87=VECTOR('',#285,10.);
#88=VECTOR('',#288,10.);
#89=VECTOR('',#289,10.);
#90=VECTOR('',#292,10.);
#91=CIRCLE('',#226,2.75);
#92=CIRCLE('',#227,2.75);
#93=CIRCLE('',#228,2.75);
#94=CIRCLE('',#230,2.75);
#95=CIRCLE('',#231,2.75);
#96=CIRCLE('',#232,2.75);
#97=VERTEX_POINT('',#297);
#98=VERTEX_POINT('',#298);
#99=VERTEX_POINT('',#301);
#100=VERTEX_POINT('',#305);
#101=VERTEX_POINT('',#306);
#102=VERTEX_POINT('',#309);
#103=VERTEX_POINT('',#313);
#104=VERTEX_POINT('',#314);
#105=VERTEX_POINT('',#316);
#106=VERTEX_POINT('',#318);
#107=VERTEX_POINT('',#320);
#108=VERTEX_POINT('',#322);
#109=VERTEX_POINT('',#326);
#110=VERTEX_POINT('',#328);
#111=VERTEX_POINT('',#332);
#112=VERTEX_POINT('',#336);
#113=VERTEX_POINT('',#340);
#114=VERTEX_POINT('',#344);
#115=EDGE_CURVE('',#97,#98,#91,.T.);
#116=EDGE_CURVE('',#98,#97,#92,.T.);
#117=EDGE_CURVE('',#98,#99,#51,.T.);
#118=EDGE_CURVE('',#99,#99,#93,.T.);
#119=EDGE_CURVE('',#100,#101,#94,.T.);
#120=EDGE_CURVE('',#101,#100,#95,.T.);
#121=EDGE_CURVE('',#101,#102,#52,.T.);
#122=EDGE_CURVE('',#102,#102,#96,.T.);
#123=EDGE_CURVE('',#103,#104,#53,.T.);
#124=EDGE_CURVE('',#104,#105,#54,.T.);
#125=EDGE_CURVE('',#105,#106,#55,.T.);
#126=EDGE_CURVE('',#106,#107,#56,.T.);
#127=EDGE_CURVE('',#107,#108,#57,.T.);
#128=EDGE_CURVE('',#108,#103,#58,.T.);
#129=EDGE_CURVE('',#109,#104,#59,.T.);
#130=EDGE_CURVE('',#110,#109,#60,.T.);
#131=EDGE_CURVE('',#110,#105,#61,.T.);
#132=EDGE_CURVE('',#111,#110,#62,.T.);
#133=EDGE_CURVE('',#111,#106,#63,.T.);
#134=EDGE_CURVE('',#112,#111,#64,.T.);
#135=EDGE_CURVE('',#112,#107,#65,.T.);
#136=EDGE_CURVE('',#113,#112,#66,.T.);
#137=EDGE_CURVE('',#113,#108,#67,.T.);
#138=EDGE_CURVE('',#114,#113,#68,.T.);
#139=EDGE_CURVE('',#103,#114,#69,.T.);
#140=EDGE_CURVE('',#109,#114,#70,.T.);
#141=ORIENTED_EDGE('',*,*,#115,.F.);
#142=ORIENTED_EDGE('',*,*,#116,.F.);
#143=ORIENTED_EDGE('',*,*,#117,.T.);
#144=ORIENTED_EDGE('',*,*,#118,.F.);
#145=ORIENTED_EDGE('',*,*,#117,.F.);
#146=ORIENTED_EDGE('',*,*,#119,.F.);
#147=ORIENTED_EDGE('',*,*,#120,.F.);
#148=ORIENTED_EDGE('',*,*,#121,.T.);
#149=ORIENTED_EDGE('',*,*,#122,.F.);
#150=ORIENTED_EDGE('',*,*,#121,.F.);
#151=ORIENTED_EDGE('',*,*,#123,.T.);
#152=ORIENTED_EDGE('',*,*,#124,.T.);
#153=ORIENTED_EDGE('',*,*,#125,.T.);
#154=ORIENTED_EDGE('',*,*,#126,.T.);
#155=ORIENTED_EDGE('',*,*,#127,.T.);
#156=ORIENTED_EDGE('',*,*,#128,.T.);
#157=ORIENTED_EDGE('',*,*,#129,.F.);
#158=ORIENTED_EDGE('',*,*,#130,.F.);
#159=ORIENTED_EDGE('',*,*,#131,.T.);
#160=ORIENTED_EDGE('',*,*,#124,.F.);
#161=ORIENTED_EDGE('',*,*,#131,.F.);
#162=ORIENTED_EDGE('',*,*,#132,.F.);
#163=ORIENTED_EDGE('',*,*,#133,.T.);
#164=ORIENTED_EDGE('',*,*,#125,.F.);
#165=ORIENTED_EDGE('',*,*,#118,.T.);
#166=ORIENTED_EDGE('',*,*,#133,.F.);
#167=ORIENTED_EDGE('',*,*,#134,.F.);
#168=ORIENTED_EDGE('',*,*,#135,.T.);
#169=ORIENTED_EDGE('',*,*,#126,.F.);
#170=ORIENTED_EDGE('',*,*,#122,.T.);
#171=ORIENTED_EDGE('',*,*,#135,.F.);
#172=ORIENTED_EDGE('',*,*,#136,.F.);
#173=ORIENTED_EDGE('',*,*,#137,.T.);
#174=ORIENTED_EDGE('',*,*,#127,.F.);
#175=ORIENTED_EDGE('',*,*,#137,.F.);
#176=ORIENTED_EDGE('',*,*,#138,.F.);
#177=ORIENTED_EDGE('',*,*,#139,.F.);
#178=ORIENTED_EDGE('',*,*,#128,.F.);
#179=ORIENTED_EDGE('',*,*,#119,.T.);
#180=ORIENTED_EDGE('',*,*,#120,.T.);
#181=ORIENTED_EDGE('',*,*,#139,.T.);
#182=ORIENTED_EDGE('',*,*,#140,.F.);
#183=ORIENTED_EDGE('',*,*,#129,.T.);
#184=ORIENTED_EDGE('',*,*,#123,.F.);
#185=ORIENTED_EDGE('',*,*,#115,.T.);
#186=ORIENTED_EDGE('',*,*,#116,.T.);
#187=ORIENTED_EDGE('',*,*,#140,.T.);
#188=ORIENTED_EDGE('',*,*,#138,.T.);
#189=ORIENTED_EDGE('',*,*,#136,.T.);
#190=ORIENTED_EDGE('',*,*,#134,.T.);
#191=ORIENTED_EDGE('',*,*,#132,.T.);
#192=ORIENTED_EDGE('',*,*,#130,.T.);
#193=CYLINDRICAL_SURFACE('',#225,2.75);
#194=CYLINDRICAL_SURFACE('',#229,2.75);
#195=ADVANCED_FACE('',(#27),#193,.F.);
#196=ADVANCED_FACE('',(#28),#194,.F.);
#197=ADVANCED_FACE('',(#29),#19,.T.);
#198=ADVANCED_FACE('',(#30),#20,.T.);
#199=ADVANCED_FACE('',(#31,#15),#21,.T.);
#200=ADVANCED_FACE('',(#32,#16),#22,.T.);
#201=ADVANCED_FACE('',(#33),#23,.T.);
#202=ADVANCED_FACE('',(#34,#17),#24,.T.);
#203=ADVANCED_FACE('',(#35,#18),#25,.T.);
#204=ADVANCED_FACE('',(#36),#26,.T.);
#205=CLOSED_SHELL('',(#195,#196,#197,#198,#199,#200,#201,#202,#203,#204));
#206=DERIVED_UNIT_ELEMENT(#208,1.);
#207=DERIVED_UNIT_ELEMENT(#355,3.);
#208=(
MASS_UNIT()
NAMED_UNIT(*)
SI_UNIT($,.GRAM.)
);
#209=DERIVED_UNIT((#206,#207));
#210=MEASURE_REPRESENTATION_ITEM('density measure',
POSITIVE_RATIO_MEASURE(2.66),#209);
#211=PROPERTY_DEFINITION_REPRESENTATION(#216,#213);
#212=PROPERTY_DEFINITION_REPRESENTATION(#217,#214);
#213=REPRESENTATION('material name',(#215),#352);
#214=REPRESENTATION('density',(#210),#352);
#215=DESCRIPTIVE_REPRESENTATION_ITEM('3.1645 AlCuMgPb / EN AW-2007',
'3.1645 AlCuMgPb / EN AW-2007');
#216=PROPERTY_DEFINITION('material property','material name',#362);
#217=PROPERTY_DEFINITION('material property','density of part',#362);
#218=DATE_TIME_ROLE('creation_date');
#219=APPLIED_DATE_AND_TIME_ASSIGNMENT(#220,#218,(#362));
#220=DATE_AND_TIME(#221,#222);
#221=CALENDAR_DATE(2014,15,9);
#222=LOCAL_TIME(6,52,52.,#223);
#223=COORDINATED_UNIVERSAL_TIME_OFFSET(0,0,.BEHIND.);
#224=AXIS2_PLACEMENT_3D('placement',#295,#241,#242);
#225=AXIS2_PLACEMENT_3D('',#296,#243,#244);
#226=AXIS2_PLACEMENT_3D('',#299,#245,#246);
#227=AXIS2_PLACEMENT_3D('',#300,#247,#248);
#228=AXIS2_PLACEMENT_3D('',#303,#250,#251);
#229=AXIS2_PLACEMENT_3D('',#304,#252,#253);
#230=AXIS2_PLACEMENT_3D('',#307,#254,#255);
#231=AXIS2_PLACEMENT_3D('',#308,#256,#257);
#232=AXIS2_PLACEMENT_3D('',#311,#259,#260);
#233=AXIS2_PLACEMENT_3D('',#312,#261,#262);
#234=AXIS2_PLACEMENT_3D('',#325,#269,#270);
#235=AXIS2_PLACEMENT_3D('',#331,#274,#275);
#236=AXIS2_PLACEMENT_3D('',#335,#278,#279);
#237=AXIS2_PLACEMENT_3D('',#339,#282,#283);
#238=AXIS2_PLACEMENT_3D('',#343,#286,#287);
#239=AXIS2_PLACEMENT_3D('',#347,#290,#291);
#240=AXIS2_PLACEMENT_3D('',#349,#293,#294);
#241=DIRECTION('axis',(0.,0.,1.));
#242=DIRECTION('refdir',(1.,0.,0.));
#243=DIRECTION('center_axis',(-1.,0.,0.));
#244=DIRECTION('ref_axis',(0.,0.,1.));
#245=DIRECTION('center_axis',(1.,0.,0.));
#246=DIRECTION('ref_axis',(0.,0.,1.));
#247=DIRECTION('center_axis',(1.,0.,0.));
#248=DIRECTION('ref_axis',(0.,0.,1.));
#249=DIRECTION('',(1.,0.,0.));
#250=DIRECTION('center_axis',(-1.,-1.30614473485313E-16,0.));
#251=DIRECTION('ref_axis',(0.,0.,1.));
#252=DIRECTION('center_axis',(1.83697019872103E-16,-1.,0.));
#253=DIRECTION('ref_axis',(1.,1.83697019872103E-16,0.));
#254=DIRECTION('center_axis',(-1.83697019872103E-16,1.,0.));
#255=DIRECTION('ref_axis',(1.,1.83697019872103E-16,0.));
#256=DIRECTION('center_axis',(-1.83697019872103E-16,1.,0.));
#257=DIRECTION('ref_axis',(1.,1.83697019872103E-16,0.));
#258=DIRECTION('',(-1.83697019872103E-16,1.,0.));
#259=DIRECTION('center_axis',(1.30614473485313E-16,-1.,0.));
#260=DIRECTION('ref_axis',(1.,1.83697019872103E-16,0.));
#261=DIRECTION('center_axis',(0.,0.,-1.));
#262=DIRECTION('ref_axis',(-1.,0.,0.));
#263=DIRECTION('',(0.,1.,0.));
#264=DIRECTION('',(1.,0.,0.));
#265=DIRECTION('',(1.30614473485313E-16,-1.,0.));
#266=DIRECTION('',(1.,1.30614473485313E-16,0.));
#267=DIRECTION('',(0.,-1.,0.));
#268=DIRECTION('',(-1.,-1.83697019872103E-16,0.));
#269=DIRECTION('center_axis',(0.,1.,0.));
#270=DIRECTION('ref_axis',(-1.,0.,0.));
#271=DIRECTION('',(0.,0.,-1.));
#272=DIRECTION('',(-1.,0.,0.));
#273=DIRECTION('',(0.,0.,-1.));
#274=DIRECTION('center_axis',(1.,1.30614473485313E-16,0.));
#275=DIRECTION('ref_axis',(-1.30614473485313E-16,1.,0.));
#276=DIRECTION('',(-1.30614473485313E-16,1.,0.));
#277=DIRECTION('',(0.,0.,-1.));
#278=DIRECTION('center_axis',(-1.30614473485313E-16,1.,0.));
#279=DIRECTION('ref_axis',(-1.,-1.30614473485313E-16,0.));
#280=DIRECTION('',(-1.,-1.30614473485313E-16,0.));
#281=DIRECTION('',(0.,0.,-1.));
#282=DIRECTION('center_axis',(1.,0.,0.));
#283=DIRECTION('ref_axis',(0.,1.,0.));
#284=DIRECTION('',(0.,1.,0.));
#285=DIRECTION('',(0.,0.,-1.));
#286=DIRECTION('center_axis',(1.83697019872103E-16,-1.,0.));
#287=DIRECTION('ref_axis',(1.,1.83697019872103E-16,0.));
#288=DIRECTION('',(1.,1.83697019872103E-16,0.));
#289=DIRECTION('',(0.,0.,1.));
#290=DIRECTION('center_axis',(-1.,0.,0.));
#291=DIRECTION('ref_axis',(0.,-1.,0.));
#292=DIRECTION('',(0.,-1.,0.));
#293=DIRECTION('center_axis',(0.,0.,1.));
#294=DIRECTION('ref_axis',(1.,0.,0.));
#295=CARTESIAN_POINT('',(0.,0.,0.));
#296=CARTESIAN_POINT('Origin',(34.6410161513775,10.,0.));
#297=CARTESIAN_POINT('',(0.,10.,2.75));
#298=CARTESIAN_POINT('',(-4.44089209850063E-15,10.,-2.75));
#299=CARTESIAN_POINT('Origin',(0.,10.,0.));
#300=CARTESIAN_POINT('Origin',(0.,10.,0.));
#301=CARTESIAN_POINT('',(3.,10.,-2.75));
#302=CARTESIAN_POINT('',(34.6410161513775,10.,-2.75));
#303=CARTESIAN_POINT('Origin',(3.,10.,0.));
#304=CARTESIAN_POINT('Origin',(9.99999999999999,34.6410161513775,0.));
#305=CARTESIAN_POINT('',(12.75,2.34213700336931E-15,0.));
#306=CARTESIAN_POINT('',(7.25,-4.44089209850063E-15,-3.36777869765522E-16));
#307=CARTESIAN_POINT('Origin',(10.,0.,0.));
#308=CARTESIAN_POINT('Origin',(10.,0.,0.));
#309=CARTESIAN_POINT('',(7.25,3.,-3.36777869765522E-16));
#310=CARTESIAN_POINT('',(7.24999999999999,34.6410161513775,-3.36777869765522E-16));
#311=CARTESIAN_POINT('Origin',(10.,3.,0.));
#312=CARTESIAN_POINT('Origin',(6.3875,6.3875,-10.));
#313=CARTESIAN_POINT('',(0.,0.,-10.));
#314=CARTESIAN_POINT('',(0.,20.,-10.));
#315=CARTESIAN_POINT('',(0.,0.,-10.));
#316=CARTESIAN_POINT('',(3.,20.,-10.));
#317=CARTESIAN_POINT('',(0.,20.,-10.));
#318=CARTESIAN_POINT('',(3.,3.,-10.));
#319=CARTESIAN_POINT('',(3.,20.,-10.));
#320=CARTESIAN_POINT('',(20.,3.,-10.));
#321=CARTESIAN_POINT('',(3.,3.,-10.));
#322=CARTESIAN_POINT('',(20.,3.67394039744206E-15,-10.));
#323=CARTESIAN_POINT('',(20.,3.,-10.));
#324=CARTESIAN_POINT('',(20.,3.67394039744206E-15,-10.));
#325=CARTESIAN_POINT('Origin',(3.,20.,0.));
#326=CARTESIAN_POINT('',(0.,20.,10.));
#327=CARTESIAN_POINT('',(0.,20.,0.));
#328=CARTESIAN_POINT('',(3.,20.,10.));
#329=CARTESIAN_POINT('',(0.,20.,10.));
#330=CARTESIAN_POINT('',(3.,20.,0.));
#331=CARTESIAN_POINT('Origin',(3.,3.,0.));
#332=CARTESIAN_POINT('',(3.,3.,10.));
#333=CARTESIAN_POINT('',(3.,20.,10.));
#334=CARTESIAN_POINT('',(3.,3.,0.));
#335=CARTESIAN_POINT('Origin',(20.,3.,0.));
#336=CARTESIAN_POINT('',(20.,3.,10.));
#337=CARTESIAN_POINT('',(3.,3.,10.));
#338=CARTESIAN_POINT('',(20.,3.,0.));
#339=CARTESIAN_POINT('Origin',(20.,3.88578058618805E-15,0.));
#340=CARTESIAN_POINT('',(20.,3.67394039744206E-15,10.));
#341=CARTESIAN_POINT('',(20.,3.,10.));
#342=CARTESIAN_POINT('',(20.,3.67394039744206E-15,0.));
#343=CARTESIAN_POINT('Origin',(0.,0.,0.));
#344=CARTESIAN_POINT('',(0.,0.,10.));
#345=CARTESIAN_POINT('',(20.,3.67394039744206E-15,10.));
#346=CARTESIAN_POINT('',(0.,0.,0.));
#347=CARTESIAN_POINT('Origin',(0.,20.,0.));
#348=CARTESIAN_POINT('',(0.,0.,10.));
#349=CARTESIAN_POINT('Origin',(6.3875,6.3875,10.));
#350=UNCERTAINTY_MEASURE_WITH_UNIT(LENGTH_MEASURE(0.01),#354,
'DISTANCE_ACCURACY_VALUE',
'Maximum model space distance between geometric entities at asserted c
onnectivities');
#351=UNCERTAINTY_MEASURE_WITH_UNIT(LENGTH_MEASURE(0.01),#354,
'DISTANCE_ACCURACY_VALUE',
'Maximum model space distance between geometric entities at asserted c
onnectivities');
#352=(
GEOMETRIC_REPRESENTATION_CONTEXT(3)
GLOBAL_UNCERTAINTY_ASSIGNED_CONTEXT((#350))
GLOBAL_UNIT_ASSIGNED_CONTEXT((#354,#357,#356))
REPRESENTATION_CONTEXT('','3D')
);
#353=(
GEOMETRIC_REPRESENTATION_CONTEXT(3)
GLOBAL_UNCERTAINTY_ASSIGNED_CONTEXT((#351))
GLOBAL_UNIT_ASSIGNED_CONTEXT((#354,#357,#356))
REPRESENTATION_CONTEXT('','3D')
);
#354=(
LENGTH_UNIT()
NAMED_UNIT(*)
SI_UNIT(.MILLI.,.METRE.)
);
#355=(
LENGTH_UNIT()
NAMED_UNIT(*)
SI_UNIT(.CENTI.,.METRE.)
);
#356=(
NAMED_UNIT(*)
SI_UNIT($,.STERADIAN.)
SOLID_ANGLE_UNIT()
);
#357=(
NAMED_UNIT(*)
PLANE_ANGLE_UNIT()
SI_UNIT($,.RADIAN.)
);
#358=SHAPE_DEFINITION_REPRESENTATION(#359,#360);
#359=PRODUCT_DEFINITION_SHAPE('',$,#362);
#360=SHAPE_REPRESENTATION('',(#224),#352);
#361=PRODUCT_DEFINITION_CONTEXT('part definition',#366,'design');
#362=PRODUCT_DEFINITION('13695',
'13695_KriTec_Aluwinkel_5_20x20x20x3_schwarz_pulverbeschichtet',#363,#361);
#363=PRODUCT_DEFINITION_FORMATION('',$,#368);
#364=PRODUCT_RELATED_PRODUCT_CATEGORY(
'13695_KriTec_Aluwinkel_5_20x20x20x3_schwarz_pulverbeschichtet',
'13695_KriTec_Aluwinkel_5_20x20x20x3_schwarz_pulverbeschichtet',(#368));
#365=APPLICATION_PROTOCOL_DEFINITION('international standard',
'automotive_design',2009,#366);
#366=APPLICATION_CONTEXT(
'Core Data for Automotive Mechanical Design Process');
#367=PRODUCT_CONTEXT('part definition',#366,'mechanical');
#368=PRODUCT('13695',
'13695_KriTec_Aluwinkel_5_20x20x20x3_schwarz_pulverbeschichtet',
'KriTec_Aluwinkel_5_20x20x20x3_schwarz_pulverbeschichtet',(#367));
#369=PRESENTATION_STYLE_ASSIGNMENT((#370));
#370=SURFACE_STYLE_USAGE(.BOTH.,#371);
#371=SURFACE_SIDE_STYLE('',(#372));
#372=SURFACE_STYLE_FILL_AREA(#373);
#373=FILL_AREA_STYLE('',(#374));
#374=FILL_AREA_STYLE_COLOUR('',#375);
#375=COLOUR_RGB('',0.250980392156863,0.250980392156863,0.250980392156863);
ENDSEC;
END-ISO-10303-21;
