ISO-10303-21;
HEADER;
/* Generated by software containing ST-Developer
 * from STEP Tools, Inc. (www.steptools.com) 
 */

FILE_DESCRIPTION(
/* description */ ('KriTec Bolzen 8 D14 zentrisch, VA rostfrei'),
/* implementation_level */ '2;1');

FILE_NAME(
/* name */ 
'S:\\Bilder_neu\\13317_KriTec_Bolzen_8_D14_zentrisch_VA_rostfrei\\Inve
ntordateien\\13317_KriTec_Bolzen_8_D14_zentrisch_VA_rostfrei.stp',
/* time_stamp */ '2022-07-14T11:24:54+02:00',
/* author */ ('jendrek'),
/* organization */ (''),
/* preprocessor_version */ 'ST-DEVELOPER v17',
/* originating_system */ 'Autodesk Inventor 2018',
/* authorisation */ '');

FILE_SCHEMA (('AUTOMOTIVE_DESIGN { 1 0 10303 214 3 1 1 }'));
ENDSEC;

DATA;
#10=MECHANICAL_DESIGN_GEOMETRIC_PRESENTATION_REPRESENTATION('',(#13),#634);
#11=SHAPE_REPRESENTATION_RELATIONSHIP('SRR','None',#641,#12);
#12=ADVANCED_BREP_SHAPE_REPRESENTATION('',(#14),#633);
#13=STYLED_ITEM('',(#650),#14);
#14=MANIFOLD_SOLID_BREP('Volumenk\X\F6rper1',#370);
#15=CYLINDRICAL_SURFACE('',#408,5.);
#16=CYLINDRICAL_SURFACE('',#415,6.);
#17=CYLINDRICAL_SURFACE('',#420,11.);
#18=CONICAL_SURFACE('',#405,4.75,0.785398163397448);
#19=CONICAL_SURFACE('',#411,5.75,0.785398163397453);
#20=CONICAL_SURFACE('',#417,10.75,0.785398163397455);
#21=CONICAL_SURFACE('',#423,10.75,0.785398163397451);
#22=FACE_BOUND('',#69,.T.);
#23=FACE_BOUND('',#79,.T.);
#24=FACE_BOUND('',#84,.T.);
#25=CIRCLE('',#400,10.5);
#26=CIRCLE('',#406,4.5);
#27=CIRCLE('',#407,5.);
#28=CIRCLE('',#409,5.);
#29=CIRCLE('',#412,5.5);
#30=CIRCLE('',#413,6.);
#31=CIRCLE('',#416,6.);
#32=CIRCLE('',#418,10.5);
#33=CIRCLE('',#419,11.);
#34=CIRCLE('',#421,11.);
#35=FACE_OUTER_BOUND('',#59,.T.);
#36=FACE_OUTER_BOUND('',#60,.T.);
#37=FACE_OUTER_BOUND('',#61,.T.);
#38=FACE_OUTER_BOUND('',#62,.T.);
#39=FACE_OUTER_BOUND('',#63,.T.);
#40=FACE_OUTER_BOUND('',#64,.T.);
#41=FACE_OUTER_BOUND('',#65,.T.);
#42=FACE_OUTER_BOUND('',#66,.T.);
#43=FACE_OUTER_BOUND('',#67,.T.);
#44=FACE_OUTER_BOUND('',#68,.T.);
#45=FACE_OUTER_BOUND('',#70,.T.);
#46=FACE_OUTER_BOUND('',#71,.T.);
#47=FACE_OUTER_BOUND('',#72,.T.);
#48=FACE_OUTER_BOUND('',#73,.T.);
#49=FACE_OUTER_BOUND('',#74,.T.);
#50=FACE_OUTER_BOUND('',#75,.T.);
#51=FACE_OUTER_BOUND('',#76,.T.);
#52=FACE_OUTER_BOUND('',#77,.T.);
#53=FACE_OUTER_BOUND('',#78,.T.);
#54=FACE_OUTER_BOUND('',#80,.T.);
#55=FACE_OUTER_BOUND('',#81,.T.);
#56=FACE_OUTER_BOUND('',#82,.T.);
#57=FACE_OUTER_BOUND('',#83,.T.);
#58=FACE_OUTER_BOUND('',#85,.T.);
#59=EDGE_LOOP('',(#235,#236,#237,#238));
#60=EDGE_LOOP('',(#239,#240,#241,#242));
#61=EDGE_LOOP('',(#243,#244,#245,#246));
#62=EDGE_LOOP('',(#247,#248,#249,#250));
#63=EDGE_LOOP('',(#251,#252,#253,#254));
#64=EDGE_LOOP('',(#255,#256,#257,#258));
#65=EDGE_LOOP('',(#259,#260,#261,#262));
#66=EDGE_LOOP('',(#263,#264,#265,#266));
#67=EDGE_LOOP('',(#267,#268,#269,#270));
#68=EDGE_LOOP('',(#271));
#69=EDGE_LOOP('',(#272,#273,#274,#275,#276,#277));
#70=EDGE_LOOP('',(#278,#279,#280,#281));
#71=EDGE_LOOP('',(#282,#283,#284,#285));
#72=EDGE_LOOP('',(#286,#287,#288,#289));
#73=EDGE_LOOP('',(#290,#291,#292,#293,#294,#295));
#74=EDGE_LOOP('',(#296,#297,#298,#299));
#75=EDGE_LOOP('',(#300,#301,#302,#303));
#76=EDGE_LOOP('',(#304));
#77=EDGE_LOOP('',(#305,#306,#307,#308));
#78=EDGE_LOOP('',(#309));
#79=EDGE_LOOP('',(#310));
#80=EDGE_LOOP('',(#311,#312,#313,#314));
#81=EDGE_LOOP('',(#315,#316,#317,#318));
#82=EDGE_LOOP('',(#319,#320,#321,#322));
#83=EDGE_LOOP('',(#323));
#84=EDGE_LOOP('',(#324));
#85=EDGE_LOOP('',(#325,#326,#327,#328));
#86=LINE('',#535,#123);
#87=LINE('',#537,#124);
#88=LINE('',#539,#125);
#89=LINE('',#540,#126);
#90=LINE('',#543,#127);
#91=LINE('',#545,#128);
#92=LINE('',#546,#129);
#93=LINE('',#550,#130);
#94=LINE('',#552,#131);
#95=LINE('',#554,#132);
#96=LINE('',#555,#133);
#97=LINE('',#558,#134);
#98=LINE('',#560,#135);
#99=LINE('',#561,#136);
#100=LINE('',#563,#137);
#101=LINE('',#564,#138);
#102=LINE('',#566,#139);
#103=LINE('',#567,#140);
#104=LINE('',#570,#141);
#105=LINE('',#572,#142);
#106=LINE('',#573,#143);
#107=LINE('',#576,#144);
#108=LINE('',#577,#145);
#109=LINE('',#580,#146);
#110=LINE('',#581,#147);
#111=LINE('',#587,#148);
#112=LINE('',#588,#149);
#113=LINE('',#591,#150);
#114=LINE('',#592,#151);
#115=LINE('',#594,#152);
#116=LINE('',#600,#153);
#117=LINE('',#605,#154);
#118=LINE('',#611,#155);
#119=LINE('',#617,#156);
#120=LINE('',#622,#157);
#121=LINE('',#627,#158);
#122=LINE('',#630,#159);
#123=VECTOR('',#428,10.);
#124=VECTOR('',#429,10.);
#125=VECTOR('',#430,10.);
#126=VECTOR('',#431,10.);
#127=VECTOR('',#434,10.);
#128=VECTOR('',#435,10.);
#129=VECTOR('',#436,10.);
#130=VECTOR('',#439,10.);
#131=VECTOR('',#440,10.);
#132=VECTOR('',#441,10.);
#133=VECTOR('',#442,10.);
#134=VECTOR('',#445,10.);
#135=VECTOR('',#446,10.);
#136=VECTOR('',#447,10.);
#137=VECTOR('',#450,10.);
#138=VECTOR('',#451,10.);
#139=VECTOR('',#454,10.);
#140=VECTOR('',#455,10.);
#141=VECTOR('',#458,10.);
#142=VECTOR('',#459,10.);
#143=VECTOR('',#460,10.);
#144=VECTOR('',#463,10.);
#145=VECTOR('',#464,10.);
#146=VECTOR('',#467,10.);
#147=VECTOR('',#468,10.);
#148=VECTOR('',#475,10.);
#149=VECTOR('',#476,10.);
#150=VECTOR('',#479,10.);
#151=VECTOR('',#480,10.);
#152=VECTOR('',#483,10.);
#153=VECTOR('',#490,4.75);
#154=VECTOR('',#497,5.);
#155=VECTOR('',#504,5.75);
#156=VECTOR('',#513,6.);
#157=VECTOR('',#518,10.75);
#158=VECTOR('',#525,11.);
#159=VECTOR('',#530,10.75);
#160=VERTEX_POINT('',#533);
#161=VERTEX_POINT('',#534);
#162=VERTEX_POINT('',#536);
#163=VERTEX_POINT('',#538);
#164=VERTEX_POINT('',#542);
#165=VERTEX_POINT('',#544);
#166=VERTEX_POINT('',#548);
#167=VERTEX_POINT('',#549);
#168=VERTEX_POINT('',#551);
#169=VERTEX_POINT('',#553);
#170=VERTEX_POINT('',#557);
#171=VERTEX_POINT('',#559);
#172=VERTEX_POINT('',#569);
#173=VERTEX_POINT('',#571);
#174=VERTEX_POINT('',#575);
#175=VERTEX_POINT('',#579);
#176=VERTEX_POINT('',#583);
#177=VERTEX_POINT('',#586);
#178=VERTEX_POINT('',#590);
#179=VERTEX_POINT('',#597);
#180=VERTEX_POINT('',#599);
#181=VERTEX_POINT('',#603);
#182=VERTEX_POINT('',#608);
#183=VERTEX_POINT('',#610);
#184=VERTEX_POINT('',#615);
#185=VERTEX_POINT('',#619);
#186=VERTEX_POINT('',#621);
#187=VERTEX_POINT('',#625);
#188=EDGE_CURVE('',#160,#161,#86,.T.);
#189=EDGE_CURVE('',#161,#162,#87,.T.);
#190=EDGE_CURVE('',#162,#163,#88,.T.);
#191=EDGE_CURVE('',#160,#163,#89,.T.);
#192=EDGE_CURVE('',#161,#164,#90,.T.);
#193=EDGE_CURVE('',#164,#165,#91,.T.);
#194=EDGE_CURVE('',#165,#162,#92,.T.);
#195=EDGE_CURVE('',#166,#167,#93,.T.);
#196=EDGE_CURVE('',#167,#168,#94,.T.);
#197=EDGE_CURVE('',#168,#169,#95,.T.);
#198=EDGE_CURVE('',#169,#166,#96,.T.);
#199=EDGE_CURVE('',#170,#168,#97,.T.);
#200=EDGE_CURVE('',#167,#171,#98,.T.);
#201=EDGE_CURVE('',#171,#170,#99,.T.);
#202=EDGE_CURVE('',#164,#166,#100,.T.);
#203=EDGE_CURVE('',#169,#165,#101,.T.);
#204=EDGE_CURVE('',#163,#170,#102,.T.);
#205=EDGE_CURVE('',#171,#160,#103,.T.);
#206=EDGE_CURVE('',#165,#172,#104,.T.);
#207=EDGE_CURVE('',#172,#173,#105,.T.);
#208=EDGE_CURVE('',#162,#173,#106,.T.);
#209=EDGE_CURVE('',#169,#174,#107,.T.);
#210=EDGE_CURVE('',#174,#172,#108,.T.);
#211=EDGE_CURVE('',#168,#175,#109,.T.);
#212=EDGE_CURVE('',#175,#174,#110,.T.);
#213=EDGE_CURVE('',#176,#176,#25,.T.);
#214=EDGE_CURVE('',#170,#177,#111,.T.);
#215=EDGE_CURVE('',#177,#175,#112,.T.);
#216=EDGE_CURVE('',#163,#178,#113,.T.);
#217=EDGE_CURVE('',#178,#177,#114,.T.);
#218=EDGE_CURVE('',#173,#178,#115,.T.);
#219=EDGE_CURVE('',#179,#179,#26,.T.);
#220=EDGE_CURVE('',#179,#180,#116,.T.);
#221=EDGE_CURVE('',#180,#180,#27,.T.);
#222=EDGE_CURVE('',#181,#181,#28,.T.);
#223=EDGE_CURVE('',#181,#180,#117,.T.);
#224=EDGE_CURVE('',#182,#182,#29,.T.);
#225=EDGE_CURVE('',#182,#183,#118,.T.);
#226=EDGE_CURVE('',#183,#183,#30,.T.);
#227=EDGE_CURVE('',#184,#184,#31,.T.);
#228=EDGE_CURVE('',#184,#183,#119,.T.);
#229=EDGE_CURVE('',#185,#185,#32,.T.);
#230=EDGE_CURVE('',#185,#186,#120,.T.);
#231=EDGE_CURVE('',#186,#186,#33,.T.);
#232=EDGE_CURVE('',#187,#187,#34,.T.);
#233=EDGE_CURVE('',#187,#186,#121,.T.);
#234=EDGE_CURVE('',#176,#187,#122,.T.);
#235=ORIENTED_EDGE('',*,*,#188,.T.);
#236=ORIENTED_EDGE('',*,*,#189,.T.);
#237=ORIENTED_EDGE('',*,*,#190,.T.);
#238=ORIENTED_EDGE('',*,*,#191,.F.);
#239=ORIENTED_EDGE('',*,*,#192,.T.);
#240=ORIENTED_EDGE('',*,*,#193,.T.);
#241=ORIENTED_EDGE('',*,*,#194,.T.);
#242=ORIENTED_EDGE('',*,*,#189,.F.);
#243=ORIENTED_EDGE('',*,*,#195,.T.);
#244=ORIENTED_EDGE('',*,*,#196,.T.);
#245=ORIENTED_EDGE('',*,*,#197,.T.);
#246=ORIENTED_EDGE('',*,*,#198,.T.);
#247=ORIENTED_EDGE('',*,*,#199,.T.);
#248=ORIENTED_EDGE('',*,*,#196,.F.);
#249=ORIENTED_EDGE('',*,*,#200,.T.);
#250=ORIENTED_EDGE('',*,*,#201,.T.);
#251=ORIENTED_EDGE('',*,*,#202,.T.);
#252=ORIENTED_EDGE('',*,*,#198,.F.);
#253=ORIENTED_EDGE('',*,*,#203,.T.);
#254=ORIENTED_EDGE('',*,*,#193,.F.);
#255=ORIENTED_EDGE('',*,*,#204,.T.);
#256=ORIENTED_EDGE('',*,*,#201,.F.);
#257=ORIENTED_EDGE('',*,*,#205,.T.);
#258=ORIENTED_EDGE('',*,*,#191,.T.);
#259=ORIENTED_EDGE('',*,*,#194,.F.);
#260=ORIENTED_EDGE('',*,*,#206,.T.);
#261=ORIENTED_EDGE('',*,*,#207,.T.);
#262=ORIENTED_EDGE('',*,*,#208,.F.);
#263=ORIENTED_EDGE('',*,*,#203,.F.);
#264=ORIENTED_EDGE('',*,*,#209,.T.);
#265=ORIENTED_EDGE('',*,*,#210,.T.);
#266=ORIENTED_EDGE('',*,*,#206,.F.);
#267=ORIENTED_EDGE('',*,*,#197,.F.);
#268=ORIENTED_EDGE('',*,*,#211,.T.);
#269=ORIENTED_EDGE('',*,*,#212,.T.);
#270=ORIENTED_EDGE('',*,*,#209,.F.);
#271=ORIENTED_EDGE('',*,*,#213,.F.);
#272=ORIENTED_EDGE('',*,*,#195,.F.);
#273=ORIENTED_EDGE('',*,*,#202,.F.);
#274=ORIENTED_EDGE('',*,*,#192,.F.);
#275=ORIENTED_EDGE('',*,*,#188,.F.);
#276=ORIENTED_EDGE('',*,*,#205,.F.);
#277=ORIENTED_EDGE('',*,*,#200,.F.);
#278=ORIENTED_EDGE('',*,*,#199,.F.);
#279=ORIENTED_EDGE('',*,*,#214,.T.);
#280=ORIENTED_EDGE('',*,*,#215,.T.);
#281=ORIENTED_EDGE('',*,*,#211,.F.);
#282=ORIENTED_EDGE('',*,*,#204,.F.);
#283=ORIENTED_EDGE('',*,*,#216,.T.);
#284=ORIENTED_EDGE('',*,*,#217,.T.);
#285=ORIENTED_EDGE('',*,*,#214,.F.);
#286=ORIENTED_EDGE('',*,*,#190,.F.);
#287=ORIENTED_EDGE('',*,*,#208,.T.);
#288=ORIENTED_EDGE('',*,*,#218,.T.);
#289=ORIENTED_EDGE('',*,*,#216,.F.);
#290=ORIENTED_EDGE('',*,*,#210,.F.);
#291=ORIENTED_EDGE('',*,*,#212,.F.);
#292=ORIENTED_EDGE('',*,*,#215,.F.);
#293=ORIENTED_EDGE('',*,*,#217,.F.);
#294=ORIENTED_EDGE('',*,*,#218,.F.);
#295=ORIENTED_EDGE('',*,*,#207,.F.);
#296=ORIENTED_EDGE('',*,*,#219,.T.);
#297=ORIENTED_EDGE('',*,*,#220,.T.);
#298=ORIENTED_EDGE('',*,*,#221,.T.);
#299=ORIENTED_EDGE('',*,*,#220,.F.);
#300=ORIENTED_EDGE('',*,*,#222,.F.);
#301=ORIENTED_EDGE('',*,*,#223,.T.);
#302=ORIENTED_EDGE('',*,*,#221,.F.);
#303=ORIENTED_EDGE('',*,*,#223,.F.);
#304=ORIENTED_EDGE('',*,*,#219,.F.);
#305=ORIENTED_EDGE('',*,*,#224,.T.);
#306=ORIENTED_EDGE('',*,*,#225,.T.);
#307=ORIENTED_EDGE('',*,*,#226,.T.);
#308=ORIENTED_EDGE('',*,*,#225,.F.);
#309=ORIENTED_EDGE('',*,*,#224,.F.);
#310=ORIENTED_EDGE('',*,*,#222,.T.);
#311=ORIENTED_EDGE('',*,*,#227,.F.);
#312=ORIENTED_EDGE('',*,*,#228,.T.);
#313=ORIENTED_EDGE('',*,*,#226,.F.);
#314=ORIENTED_EDGE('',*,*,#228,.F.);
#315=ORIENTED_EDGE('',*,*,#229,.T.);
#316=ORIENTED_EDGE('',*,*,#230,.T.);
#317=ORIENTED_EDGE('',*,*,#231,.T.);
#318=ORIENTED_EDGE('',*,*,#230,.F.);
#319=ORIENTED_EDGE('',*,*,#232,.F.);
#320=ORIENTED_EDGE('',*,*,#233,.T.);
#321=ORIENTED_EDGE('',*,*,#231,.F.);
#322=ORIENTED_EDGE('',*,*,#233,.F.);
#323=ORIENTED_EDGE('',*,*,#229,.F.);
#324=ORIENTED_EDGE('',*,*,#227,.T.);
#325=ORIENTED_EDGE('',*,*,#213,.T.);
#326=ORIENTED_EDGE('',*,*,#234,.T.);
#327=ORIENTED_EDGE('',*,*,#232,.T.);
#328=ORIENTED_EDGE('',*,*,#234,.F.);
#329=PLANE('',#390);
#330=PLANE('',#391);
#331=PLANE('',#392);
#332=PLANE('',#393);
#333=PLANE('',#394);
#334=PLANE('',#395);
#335=PLANE('',#396);
#336=PLANE('',#397);
#337=PLANE('',#398);
#338=PLANE('',#399);
#339=PLANE('',#401);
#340=PLANE('',#402);
#341=PLANE('',#403);
#342=PLANE('',#404);
#343=PLANE('',#410);
#344=PLANE('',#414);
#345=PLANE('',#422);
#346=ADVANCED_FACE('',(#35),#329,.T.);
#347=ADVANCED_FACE('',(#36),#330,.T.);
#348=ADVANCED_FACE('',(#37),#331,.T.);
#349=ADVANCED_FACE('',(#38),#332,.T.);
#350=ADVANCED_FACE('',(#39),#333,.T.);
#351=ADVANCED_FACE('',(#40),#334,.T.);
#352=ADVANCED_FACE('',(#41),#335,.F.);
#353=ADVANCED_FACE('',(#42),#336,.F.);
#354=ADVANCED_FACE('',(#43),#337,.F.);
#355=ADVANCED_FACE('',(#44,#22),#338,.T.);
#356=ADVANCED_FACE('',(#45),#339,.F.);
#357=ADVANCED_FACE('',(#46),#340,.F.);
#358=ADVANCED_FACE('',(#47),#341,.F.);
#359=ADVANCED_FACE('',(#48),#342,.F.);
#360=ADVANCED_FACE('',(#49),#18,.T.);
#361=ADVANCED_FACE('',(#50),#15,.T.);
#362=ADVANCED_FACE('',(#51),#343,.F.);
#363=ADVANCED_FACE('',(#52),#19,.T.);
#364=ADVANCED_FACE('',(#53,#23),#344,.F.);
#365=ADVANCED_FACE('',(#54),#16,.T.);
#366=ADVANCED_FACE('',(#55),#20,.T.);
#367=ADVANCED_FACE('',(#56),#17,.T.);
#368=ADVANCED_FACE('',(#57,#24),#345,.F.);
#369=ADVANCED_FACE('',(#58),#21,.T.);
#370=CLOSED_SHELL('',(#346,#347,#348,#349,#350,#351,#352,#353,#354,#355,
#356,#357,#358,#359,#360,#361,#362,#363,#364,#365,#366,#367,#368,#369));
#371=DERIVED_UNIT_ELEMENT(#373,1.);
#372=DERIVED_UNIT_ELEMENT(#636,3.);
#373=(
MASS_UNIT()
NAMED_UNIT(*)
SI_UNIT($,.GRAM.)
);
#374=DERIVED_UNIT((#371,#372));
#375=MEASURE_REPRESENTATION_ITEM('density measure',
POSITIVE_RATIO_MEASURE(7.86),#374);
#376=PROPERTY_DEFINITION_REPRESENTATION(#381,#378);
#377=PROPERTY_DEFINITION_REPRESENTATION(#382,#379);
#378=REPRESENTATION('material name',(#380),#633);
#379=REPRESENTATION('density',(#375),#633);
#380=DESCRIPTIVE_REPRESENTATION_ITEM('1.4301 X5CrNi10-10 A2',
'1.4301 X5CrNi10-10 A2');
#381=PROPERTY_DEFINITION('material property','material name',#643);
#382=PROPERTY_DEFINITION('material property','density of part',#643);
#383=DATE_TIME_ROLE('creation_date');
#384=APPLIED_DATE_AND_TIME_ASSIGNMENT(#385,#383,(#643));
#385=DATE_AND_TIME(#386,#387);
#386=CALENDAR_DATE(2021,1,7);
#387=LOCAL_TIME(10,12,29.,#388);
#388=COORDINATED_UNIVERSAL_TIME_OFFSET(0,0,.BEHIND.);
#389=AXIS2_PLACEMENT_3D('placement',#531,#424,#425);
#390=AXIS2_PLACEMENT_3D('',#532,#426,#427);
#391=AXIS2_PLACEMENT_3D('',#541,#432,#433);
#392=AXIS2_PLACEMENT_3D('',#547,#437,#438);
#393=AXIS2_PLACEMENT_3D('',#556,#443,#444);
#394=AXIS2_PLACEMENT_3D('',#562,#448,#449);
#395=AXIS2_PLACEMENT_3D('',#565,#452,#453);
#396=AXIS2_PLACEMENT_3D('',#568,#456,#457);
#397=AXIS2_PLACEMENT_3D('',#574,#461,#462);
#398=AXIS2_PLACEMENT_3D('',#578,#465,#466);
#399=AXIS2_PLACEMENT_3D('',#582,#469,#470);
#400=AXIS2_PLACEMENT_3D('',#584,#471,#472);
#401=AXIS2_PLACEMENT_3D('',#585,#473,#474);
#402=AXIS2_PLACEMENT_3D('',#589,#477,#478);
#403=AXIS2_PLACEMENT_3D('',#593,#481,#482);
#404=AXIS2_PLACEMENT_3D('',#595,#484,#485);
#405=AXIS2_PLACEMENT_3D('',#596,#486,#487);
#406=AXIS2_PLACEMENT_3D('',#598,#488,#489);
#407=AXIS2_PLACEMENT_3D('',#601,#491,#492);
#408=AXIS2_PLACEMENT_3D('',#602,#493,#494);
#409=AXIS2_PLACEMENT_3D('',#604,#495,#496);
#410=AXIS2_PLACEMENT_3D('',#606,#498,#499);
#411=AXIS2_PLACEMENT_3D('',#607,#500,#501);
#412=AXIS2_PLACEMENT_3D('',#609,#502,#503);
#413=AXIS2_PLACEMENT_3D('',#612,#505,#506);
#414=AXIS2_PLACEMENT_3D('',#613,#507,#508);
#415=AXIS2_PLACEMENT_3D('',#614,#509,#510);
#416=AXIS2_PLACEMENT_3D('',#616,#511,#512);
#417=AXIS2_PLACEMENT_3D('',#618,#514,#515);
#418=AXIS2_PLACEMENT_3D('',#620,#516,#517);
#419=AXIS2_PLACEMENT_3D('',#623,#519,#520);
#420=AXIS2_PLACEMENT_3D('',#624,#521,#522);
#421=AXIS2_PLACEMENT_3D('',#626,#523,#524);
#422=AXIS2_PLACEMENT_3D('',#628,#526,#527);
#423=AXIS2_PLACEMENT_3D('',#629,#528,#529);
#424=DIRECTION('axis',(0.,0.,1.));
#425=DIRECTION('refdir',(1.,0.,0.));
#426=DIRECTION('center_axis',(-0.612372435695799,0.353553390593276,0.707106781186543));
#427=DIRECTION('ref_axis',(0.75592894601845,0.,0.654653670707982));
#428=DIRECTION('',(0.5,0.866025403784439,0.));
#429=DIRECTION('',(-0.75592894601845,9.9936592026613E-16,-0.654653670707982));
#430=DIRECTION('',(-0.5,-0.866025403784439,0.));
#431=DIRECTION('',(-0.377964473009224,0.654653670707973,-0.654653670707983));
#432=DIRECTION('center_axis',(-0.612372435695799,-0.353553390593276,0.707106781186542));
#433=DIRECTION('ref_axis',(0.75592894601845,0.,0.654653670707982));
#434=DIRECTION('',(-0.5,0.866025403784439,0.));
#435=DIRECTION('',(-0.377964473009223,-0.654653670707974,-0.654653670707982));
#436=DIRECTION('',(0.5,-0.866025403784439,0.));
#437=DIRECTION('center_axis',(0.612372435695799,-0.353553390593276,0.707106781186542));
#438=DIRECTION('ref_axis',(0.75592894601845,0.,-0.654653670707983));
#439=DIRECTION('',(-0.5,-0.866025403784439,0.));
#440=DIRECTION('',(0.755928946018449,-3.17980065539223E-16,-0.654653670707983));
#441=DIRECTION('',(0.5,0.866025403784439,0.));
#442=DIRECTION('',(-0.377964473009224,0.654653670707975,0.654653670707982));
#443=DIRECTION('center_axis',(0.612372435695799,0.353553390593276,0.707106781186543));
#444=DIRECTION('ref_axis',(0.75592894601845,0.,-0.654653670707982));
#445=DIRECTION('',(-0.5,0.866025403784439,0.));
#446=DIRECTION('',(0.5,-0.866025403784439,0.));
#447=DIRECTION('',(0.377964473009225,0.654653670707973,-0.654653670707982));
#448=DIRECTION('center_axis',(2.03960993326579E-16,-0.707106781186552,0.707106781186543));
#449=DIRECTION('ref_axis',(1.,0.,-2.88444402957538E-16));
#450=DIRECTION('',(-1.,-2.88444402957535E-16,0.));
#451=DIRECTION('',(1.,2.88444402957535E-16,0.));
#452=DIRECTION('center_axis',(1.35973995551053E-16,0.707106781186552,0.707106781186543));
#453=DIRECTION('ref_axis',(1.,0.,-1.92296268638359E-16));
#454=DIRECTION('',(-1.,1.92296268638356E-16,0.));
#455=DIRECTION('',(1.,-1.92296268638356E-16,0.));
#456=DIRECTION('center_axis',(0.866025403784439,0.5,0.));
#457=DIRECTION('ref_axis',(0.5,-0.866025403784439,0.));
#458=DIRECTION('',(0.,0.,-1.));
#459=DIRECTION('',(0.5,-0.866025403784439,0.));
#460=DIRECTION('',(0.,0.,-1.));
#461=DIRECTION('center_axis',(-2.88444402957535E-16,1.,0.));
#462=DIRECTION('ref_axis',(1.,2.88444402957535E-16,0.));
#463=DIRECTION('',(0.,0.,-1.));
#464=DIRECTION('',(1.,2.88444402957535E-16,0.));
#465=DIRECTION('center_axis',(-0.866025403784439,0.5,0.));
#466=DIRECTION('ref_axis',(0.5,0.866025403784439,0.));
#467=DIRECTION('',(0.,0.,-1.));
#468=DIRECTION('',(0.5,0.866025403784439,0.));
#469=DIRECTION('center_axis',(0.,0.,1.));
#470=DIRECTION('ref_axis',(1.,0.,0.));
#471=DIRECTION('center_axis',(0.,0.,-1.));
#472=DIRECTION('ref_axis',(-1.,0.,0.));
#473=DIRECTION('center_axis',(-0.866025403784439,-0.5,0.));
#474=DIRECTION('ref_axis',(-0.5,0.866025403784439,0.));
#475=DIRECTION('',(0.,0.,-1.));
#476=DIRECTION('',(-0.5,0.866025403784439,0.));
#477=DIRECTION('center_axis',(-1.92296268638356E-16,-1.,0.));
#478=DIRECTION('ref_axis',(-1.,1.92296268638356E-16,0.));
#479=DIRECTION('',(0.,0.,-1.));
#480=DIRECTION('',(-1.,1.92296268638356E-16,0.));
#481=DIRECTION('center_axis',(0.866025403784439,-0.5,0.));
#482=DIRECTION('ref_axis',(-0.5,-0.866025403784439,0.));
#483=DIRECTION('',(-0.5,-0.866025403784439,0.));
#484=DIRECTION('center_axis',(0.,0.,-1.));
#485=DIRECTION('ref_axis',(-1.,0.,0.));
#486=DIRECTION('center_axis',(0.,0.,1.));
#487=DIRECTION('ref_axis',(-1.,0.,0.));
#488=DIRECTION('center_axis',(0.,0.,1.));
#489=DIRECTION('ref_axis',(-1.,0.,0.));
#490=DIRECTION('',(0.707106781186547,-8.65956056235493E-17,0.707106781186548));
#491=DIRECTION('center_axis',(0.,0.,-1.));
#492=DIRECTION('ref_axis',(-1.,0.,0.));
#493=DIRECTION('center_axis',(0.,0.,1.));
#494=DIRECTION('ref_axis',(-1.,0.,0.));
#495=DIRECTION('center_axis',(0.,0.,1.));
#496=DIRECTION('ref_axis',(-1.,0.,0.));
#497=DIRECTION('',(0.,0.,-1.));
#498=DIRECTION('center_axis',(0.,0.,1.));
#499=DIRECTION('ref_axis',(1.,0.,0.));
#500=DIRECTION('center_axis',(0.,0.,1.));
#501=DIRECTION('ref_axis',(-1.,0.,0.));
#502=DIRECTION('center_axis',(0.,0.,1.));
#503=DIRECTION('ref_axis',(-1.,0.,0.));
#504=DIRECTION('',(0.707106781186551,-8.65956056235497E-17,0.707106781186544));
#505=DIRECTION('center_axis',(0.,0.,-1.));
#506=DIRECTION('ref_axis',(-1.,0.,0.));
#507=DIRECTION('center_axis',(0.,0.,1.));
#508=DIRECTION('ref_axis',(1.,0.,0.));
#509=DIRECTION('center_axis',(0.,0.,1.));
#510=DIRECTION('ref_axis',(-1.,0.,0.));
#511=DIRECTION('center_axis',(0.,0.,1.));
#512=DIRECTION('ref_axis',(-1.,0.,0.));
#513=DIRECTION('',(0.,0.,-1.));
#514=DIRECTION('center_axis',(0.,0.,1.));
#515=DIRECTION('ref_axis',(-1.,0.,0.));
#516=DIRECTION('center_axis',(0.,0.,1.));
#517=DIRECTION('ref_axis',(-1.,0.,0.));
#518=DIRECTION('',(0.707106781186552,-8.65956056235499E-17,0.707106781186543));
#519=DIRECTION('center_axis',(0.,0.,-1.));
#520=DIRECTION('ref_axis',(-1.,0.,0.));
#521=DIRECTION('center_axis',(0.,0.,1.));
#522=DIRECTION('ref_axis',(-1.,0.,0.));
#523=DIRECTION('center_axis',(0.,0.,1.));
#524=DIRECTION('ref_axis',(-1.,0.,0.));
#525=DIRECTION('',(0.,0.,-1.));
#526=DIRECTION('center_axis',(0.,0.,1.));
#527=DIRECTION('ref_axis',(1.,0.,0.));
#528=DIRECTION('center_axis',(0.,0.,-1.));
#529=DIRECTION('ref_axis',(-1.,0.,0.));
#530=DIRECTION('',(0.707106781186549,8.65956056235495E-17,-0.707106781186546));
#531=CARTESIAN_POINT('',(0.,0.,0.));
#532=CARTESIAN_POINT('Origin',(2.63416060317767,-0.6875,45.875));
#533=CARTESIAN_POINT('',(1.58771324027147,-2.75,46.));
#534=CARTESIAN_POINT('',(3.17542648054294,-1.38777878078145E-15,46.));
#535=CARTESIAN_POINT('',(2.74241377865072,-0.75,46.));
#536=CARTESIAN_POINT('',(2.88675134594813,-7.28583859910259E-16,45.75));
#537=CARTESIAN_POINT('',(3.17542648054294,-1.11022302462516E-15,46.));
#538=CARTESIAN_POINT('',(1.44337567297406,-2.5,45.75));
#539=CARTESIAN_POINT('',(2.52590742770461,-0.625,45.75));
#540=CARTESIAN_POINT('',(1.58771324027147,-2.75,46.));
#541=CARTESIAN_POINT('Origin',(1.91247276669063,1.9375,45.875));
#542=CARTESIAN_POINT('',(1.58771324027147,2.75,46.));
#543=CARTESIAN_POINT('',(2.02072594216369,2.,46.));
#544=CARTESIAN_POINT('',(1.44337567297406,2.5,45.75));
#545=CARTESIAN_POINT('',(1.58771324027147,2.75,46.));
#546=CARTESIAN_POINT('',(1.80421959121758,1.875,45.75));
#547=CARTESIAN_POINT('Origin',(-2.63416060317767,0.687499999999999,45.875));
#548=CARTESIAN_POINT('',(-1.58771324027147,2.75,46.));
#549=CARTESIAN_POINT('',(-3.17542648054294,-2.77555756156289E-16,46.));
#550=CARTESIAN_POINT('',(-2.74241377865072,0.749999999999999,46.));
#551=CARTESIAN_POINT('',(-2.88675134594813,-3.98986399474666E-16,45.75));
#552=CARTESIAN_POINT('',(-3.17542648054294,-2.77555756156289E-16,46.));
#553=CARTESIAN_POINT('',(-1.44337567297406,2.5,45.75));
#554=CARTESIAN_POINT('',(-2.52590742770461,0.624999999999999,45.75));
#555=CARTESIAN_POINT('',(-1.44337567297406,2.5,45.75));
#556=CARTESIAN_POINT('Origin',(-1.91247276669063,-1.9375,45.875));
#557=CARTESIAN_POINT('',(-1.44337567297406,-2.5,45.75));
#558=CARTESIAN_POINT('',(-1.80421959121758,-1.875,45.75));
#559=CARTESIAN_POINT('',(-1.58771324027147,-2.75,46.));
#560=CARTESIAN_POINT('',(-2.02072594216369,-2.,46.));
#561=CARTESIAN_POINT('',(-1.58771324027147,-2.75,46.));
#562=CARTESIAN_POINT('Origin',(-0.721687836487033,2.625,45.875));
#563=CARTESIAN_POINT('',(-0.721687836487033,2.75,46.));
#564=CARTESIAN_POINT('',(-0.721687836487033,2.5,45.75));
#565=CARTESIAN_POINT('Origin',(0.721687836487031,-2.625,45.875));
#566=CARTESIAN_POINT('',(0.721687836487031,-2.5,45.75));
#567=CARTESIAN_POINT('',(0.721687836487031,-2.75,46.));
#568=CARTESIAN_POINT('Origin',(1.44337567297406,2.5,46.));
#569=CARTESIAN_POINT('',(1.44337567297406,2.5,41.));
#570=CARTESIAN_POINT('',(1.44337567297406,2.5,46.));
#571=CARTESIAN_POINT('',(2.88675134594813,-8.32667268468867E-16,41.));
#572=CARTESIAN_POINT('',(1.44337567297406,2.5,41.));
#573=CARTESIAN_POINT('',(2.88675134594813,-7.28583859910259E-16,46.));
#574=CARTESIAN_POINT('Origin',(-1.44337567297406,2.5,46.));
#575=CARTESIAN_POINT('',(-1.44337567297406,2.5,41.));
#576=CARTESIAN_POINT('',(-1.44337567297406,2.5,46.));
#577=CARTESIAN_POINT('',(-1.44337567297406,2.5,41.));
#578=CARTESIAN_POINT('Origin',(-2.88675134594813,-3.98986399474666E-16,
46.));
#579=CARTESIAN_POINT('',(-2.88675134594813,-2.77555756156289E-16,41.));
#580=CARTESIAN_POINT('',(-2.88675134594813,-3.98986399474666E-16,46.));
#581=CARTESIAN_POINT('',(-2.88675134594813,-3.98986399474666E-16,41.));
#582=CARTESIAN_POINT('Origin',(-4.48690509505221E-16,0.,46.));
#583=CARTESIAN_POINT('',(10.5,-1.28587913910472E-15,46.));
#584=CARTESIAN_POINT('Origin',(0.,0.,46.));
#585=CARTESIAN_POINT('Origin',(-1.44337567297406,-2.5,46.));
#586=CARTESIAN_POINT('',(-1.44337567297406,-2.5,41.));
#587=CARTESIAN_POINT('',(-1.44337567297406,-2.5,46.));
#588=CARTESIAN_POINT('',(-1.44337567297406,-2.5,41.));
#589=CARTESIAN_POINT('Origin',(1.44337567297406,-2.5,46.));
#590=CARTESIAN_POINT('',(1.44337567297406,-2.5,41.));
#591=CARTESIAN_POINT('',(1.44337567297406,-2.5,46.));
#592=CARTESIAN_POINT('',(1.44337567297406,-2.5,41.));
#593=CARTESIAN_POINT('Origin',(2.88675134594813,-7.28583859910259E-16,46.));
#594=CARTESIAN_POINT('',(2.88675134594813,-7.28583859910259E-16,41.));
#595=CARTESIAN_POINT('Origin',(0.,0.,41.));
#596=CARTESIAN_POINT('Origin',(0.,0.,0.25));
#597=CARTESIAN_POINT('',(4.5,5.51091059616309E-16,0.));
#598=CARTESIAN_POINT('Origin',(0.,0.,0.));
#599=CARTESIAN_POINT('',(5.,-6.12323399573677E-16,0.5));
#600=CARTESIAN_POINT('',(4.75,-5.81707229594993E-16,0.25));
#601=CARTESIAN_POINT('Origin',(0.,0.,0.5));
#602=CARTESIAN_POINT('Origin',(0.,0.,0.));
#603=CARTESIAN_POINT('',(5.,6.12323399573677E-16,19.));
#604=CARTESIAN_POINT('Origin',(0.,0.,19.));
#605=CARTESIAN_POINT('',(5.,6.12323399573677E-16,0.));
#606=CARTESIAN_POINT('Origin',(-2.36064120735333E-16,0.,0.));
#607=CARTESIAN_POINT('Origin',(0.,0.,19.25));
#608=CARTESIAN_POINT('',(5.5,6.73555739531044E-16,19.));
#609=CARTESIAN_POINT('Origin',(0.,0.,19.));
#610=CARTESIAN_POINT('',(6.,-7.34788079488412E-16,19.5));
#611=CARTESIAN_POINT('',(5.75,-7.04171909509728E-16,19.25));
#612=CARTESIAN_POINT('Origin',(0.,0.,19.5));
#613=CARTESIAN_POINT('Origin',(-6.78022909193566E-16,1.54197642309049E-16,
19.));
#614=CARTESIAN_POINT('Origin',(0.,0.,19.));
#615=CARTESIAN_POINT('',(6.,7.34788079488412E-16,38.));
#616=CARTESIAN_POINT('Origin',(0.,0.,38.));
#617=CARTESIAN_POINT('',(6.,7.34788079488412E-16,19.));
#618=CARTESIAN_POINT('Origin',(0.,0.,38.25));
#619=CARTESIAN_POINT('',(10.5,1.28587913910472E-15,38.));
#620=CARTESIAN_POINT('Origin',(0.,0.,38.));
#621=CARTESIAN_POINT('',(11.,-1.34711147906209E-15,38.5));
#622=CARTESIAN_POINT('',(10.75,-1.3164953090834E-15,38.25));
#623=CARTESIAN_POINT('Origin',(0.,0.,38.5));
#624=CARTESIAN_POINT('Origin',(0.,0.,38.));
#625=CARTESIAN_POINT('',(11.,1.34711147906209E-15,45.5));
#626=CARTESIAN_POINT('Origin',(0.,0.,45.5));
#627=CARTESIAN_POINT('',(11.,1.34711147906209E-15,38.));
#628=CARTESIAN_POINT('Origin',(-4.48690509505221E-16,0.,38.));
#629=CARTESIAN_POINT('Origin',(0.,0.,45.75));
#630=CARTESIAN_POINT('',(10.75,1.3164953090834E-15,45.75));
#631=UNCERTAINTY_MEASURE_WITH_UNIT(LENGTH_MEASURE(0.01),#635,
'DISTANCE_ACCURACY_VALUE',
'Maximum model space distance between geometric entities at asserted c
onnectivities');
#632=UNCERTAINTY_MEASURE_WITH_UNIT(LENGTH_MEASURE(0.01),#635,
'DISTANCE_ACCURACY_VALUE',
'Maximum model space distance between geometric entities at asserted c
onnectivities');
#633=(
GEOMETRIC_REPRESENTATION_CONTEXT(3)
GLOBAL_UNCERTAINTY_ASSIGNED_CONTEXT((#631))
GLOBAL_UNIT_ASSIGNED_CONTEXT((#635,#638,#637))
REPRESENTATION_CONTEXT('','3D')
);
#634=(
GEOMETRIC_REPRESENTATION_CONTEXT(3)
GLOBAL_UNCERTAINTY_ASSIGNED_CONTEXT((#632))
GLOBAL_UNIT_ASSIGNED_CONTEXT((#635,#638,#637))
REPRESENTATION_CONTEXT('','3D')
);
#635=(
LENGTH_UNIT()
NAMED_UNIT(*)
SI_UNIT(.MILLI.,.METRE.)
);
#636=(
LENGTH_UNIT()
NAMED_UNIT(*)
SI_UNIT(.CENTI.,.METRE.)
);
#637=(
NAMED_UNIT(*)
SI_UNIT($,.STERADIAN.)
SOLID_ANGLE_UNIT()
);
#638=(
NAMED_UNIT(*)
PLANE_ANGLE_UNIT()
SI_UNIT($,.RADIAN.)
);
#639=SHAPE_DEFINITION_REPRESENTATION(#640,#641);
#640=PRODUCT_DEFINITION_SHAPE('',$,#643);
#641=SHAPE_REPRESENTATION('',(#389),#633);
#642=PRODUCT_DEFINITION_CONTEXT('part definition',#647,'design');
#643=PRODUCT_DEFINITION('13317',
'13317_KriTec_Bolzen_8_D14_zentrisch_VA rostfrei',#644,#642);
#644=PRODUCT_DEFINITION_FORMATION('',$,#649);
#645=PRODUCT_RELATED_PRODUCT_CATEGORY(
'13317_KriTec_Bolzen_8_D14_zentrisch_VA rostfrei',
'13317_KriTec_Bolzen_8_D14_zentrisch_VA rostfrei',(#649));
#646=APPLICATION_PROTOCOL_DEFINITION('international standard',
'automotive_design',2009,#647);
#647=APPLICATION_CONTEXT(
'Core Data for Automotive Mechanical Design Process');
#648=PRODUCT_CONTEXT('part definition',#647,'mechanical');
#649=PRODUCT('13317','13317_KriTec_Bolzen_8_D14_zentrisch_VA rostfrei',
'KriTec Bolzen 8 D14 zentrisch, VA rostfrei',(#648));
#650=PRESENTATION_STYLE_ASSIGNMENT((#651));
#651=SURFACE_STYLE_USAGE(.BOTH.,#652);
#652=SURFACE_SIDE_STYLE('',(#653));
#653=SURFACE_STYLE_FILL_AREA(#654);
#654=FILL_AREA_STYLE('',(#655));
#655=FILL_AREA_STYLE_COLOUR('',#656);
#656=COLOUR_RGB('',0.956862745098039,0.956862745098039,0.956862745098039);
ENDSEC;
END-ISO-10303-21;
