ISO-10303-21;
HEADER;
/* Generated by software containing ST-Developer
 * from STEP Tools, Inc. (www.steptools.com) 
 */

FILE_DESCRIPTION(
/* description */ (''),
/* implementation_level */ '2;1');

FILE_NAME(
/* name */ 
'S:\\Bilder_neu\\13284_KriTec_Adapterflasch_60x30_M10x24\\Inventordate
ien\\13284_KriTec_Adapterflasch_60x30_M10x24.stp',
/* time_stamp */ '2016-06-23T16:13:39+02:00',
/* author */ ('Steiner'),
/* organization */ (''),
/* preprocessor_version */ 'ST-DEVELOPER v16.1',
/* originating_system */ 'Autodesk Inventor 2016',
/* authorisation */ '');

FILE_SCHEMA (('AUTOMOTIVE_DESIGN { 1 0 10303 214 3 1 1 }'));
ENDSEC;

DATA;
#10=MECHANICAL_DESIGN_GEOMETRIC_PRESENTATION_REPRESENTATION('',(#13),#577);
#11=SHAPE_REPRESENTATION_RELATIONSHIP('SRR','None',#586,#12);
#12=ADVANCED_BREP_SHAPE_REPRESENTATION('',(#14),#576);
#13=STYLED_ITEM('',(#595),#14);
#14=MANIFOLD_SOLID_BREP('Solid1',#327);
#15=LINE('',#529,#27);
#16=LINE('',#532,#28);
#17=LINE('',#537,#29);
#18=LINE('',#541,#30);
#19=LINE('',#543,#31);
#20=LINE('',#544,#32);
#21=LINE('',#549,#33);
#22=LINE('',#555,#34);
#23=LINE('',#561,#35);
#24=LINE('',#565,#36);
#25=LINE('',#567,#37);
#26=LINE('',#568,#38);
#27=VECTOR('',#432,6.);
#28=VECTOR('',#435,6.);
#29=VECTOR('',#440,6.);
#30=VECTOR('',#445,44.497190922574);
#31=VECTOR('',#446,6.);
#32=VECTOR('',#447,44.497190922574);
#33=VECTOR('',#452,6.);
#34=VECTOR('',#459,6.);
#35=VECTOR('',#466,6.);
#36=VECTOR('',#471,44.497190922574);
#37=VECTOR('',#472,6.);
#38=VECTOR('',#473,44.497190922574);
#39=PLANE('',#353);
#40=PLANE('',#360);
#41=PLANE('',#370);
#42=PLANE('',#374);
#43=PLANE('',#375);
#44=CYLINDRICAL_SURFACE('',#332,4.188);
#45=CYLINDRICAL_SURFACE('',#339,4.1);
#46=CYLINDRICAL_SURFACE('',#346,4.1);
#47=CYLINDRICAL_SURFACE('',#350,10.75);
#48=CYLINDRICAL_SURFACE('',#354,30.0000000000034);
#49=CYLINDRICAL_SURFACE('',#357,6.00000000000023);
#50=CYLINDRICAL_SURFACE('',#361,5.99999999999859);
#51=CYLINDRICAL_SURFACE('',#364,29.9999999999995);
#52=CYLINDRICAL_SURFACE('',#367,6.00000000000023);
#53=CYLINDRICAL_SURFACE('',#371,6.00000000000023);
#54=FACE_BOUND('',#93,.T.);
#55=FACE_BOUND('',#95,.T.);
#56=FACE_BOUND('',#97,.T.);
#57=FACE_BOUND('',#99,.T.);
#58=FACE_BOUND('',#101,.T.);
#59=FACE_BOUND('',#103,.T.);
#60=FACE_BOUND('',#105,.T.);
#61=FACE_BOUND('',#107,.T.);
#62=FACE_BOUND('',#109,.T.);
#63=FACE_BOUND('',#111,.T.);
#64=FACE_BOUND('',#113,.T.);
#65=FACE_BOUND('',#123,.T.);
#66=FACE_BOUND('',#124,.T.);
#67=FACE_BOUND('',#125,.T.);
#68=FACE_BOUND('',#127,.T.);
#69=FACE_BOUND('',#128,.T.);
#70=FACE_BOUND('',#129,.T.);
#71=FACE_OUTER_BOUND('',#92,.T.);
#72=FACE_OUTER_BOUND('',#94,.T.);
#73=FACE_OUTER_BOUND('',#96,.T.);
#74=FACE_OUTER_BOUND('',#98,.T.);
#75=FACE_OUTER_BOUND('',#100,.T.);
#76=FACE_OUTER_BOUND('',#102,.T.);
#77=FACE_OUTER_BOUND('',#104,.T.);
#78=FACE_OUTER_BOUND('',#106,.T.);
#79=FACE_OUTER_BOUND('',#108,.T.);
#80=FACE_OUTER_BOUND('',#110,.T.);
#81=FACE_OUTER_BOUND('',#112,.T.);
#82=FACE_OUTER_BOUND('',#114,.T.);
#83=FACE_OUTER_BOUND('',#115,.T.);
#84=FACE_OUTER_BOUND('',#116,.T.);
#85=FACE_OUTER_BOUND('',#117,.T.);
#86=FACE_OUTER_BOUND('',#118,.T.);
#87=FACE_OUTER_BOUND('',#119,.T.);
#88=FACE_OUTER_BOUND('',#120,.T.);
#89=FACE_OUTER_BOUND('',#121,.T.);
#90=FACE_OUTER_BOUND('',#122,.T.);
#91=FACE_OUTER_BOUND('',#126,.T.);
#92=EDGE_LOOP('',(#224));
#93=EDGE_LOOP('',(#225));
#94=EDGE_LOOP('',(#226));
#95=EDGE_LOOP('',(#227));
#96=EDGE_LOOP('',(#228));
#97=EDGE_LOOP('',(#229));
#98=EDGE_LOOP('',(#230));
#99=EDGE_LOOP('',(#231));
#100=EDGE_LOOP('',(#232));
#101=EDGE_LOOP('',(#233));
#102=EDGE_LOOP('',(#234));
#103=EDGE_LOOP('',(#235));
#104=EDGE_LOOP('',(#236));
#105=EDGE_LOOP('',(#237));
#106=EDGE_LOOP('',(#238));
#107=EDGE_LOOP('',(#239));
#108=EDGE_LOOP('',(#240));
#109=EDGE_LOOP('',(#241));
#110=EDGE_LOOP('',(#242));
#111=EDGE_LOOP('',(#243));
#112=EDGE_LOOP('',(#244));
#113=EDGE_LOOP('',(#245));
#114=EDGE_LOOP('',(#246,#247,#248,#249));
#115=EDGE_LOOP('',(#250,#251,#252,#253));
#116=EDGE_LOOP('',(#254,#255,#256,#257));
#117=EDGE_LOOP('',(#258,#259,#260,#261));
#118=EDGE_LOOP('',(#262,#263,#264,#265));
#119=EDGE_LOOP('',(#266,#267,#268,#269));
#120=EDGE_LOOP('',(#270,#271,#272,#273));
#121=EDGE_LOOP('',(#274,#275,#276,#277));
#122=EDGE_LOOP('',(#278,#279,#280,#281,#282,#283,#284,#285));
#123=EDGE_LOOP('',(#286));
#124=EDGE_LOOP('',(#287));
#125=EDGE_LOOP('',(#288));
#126=EDGE_LOOP('',(#289,#290,#291,#292,#293,#294,#295,#296));
#127=EDGE_LOOP('',(#297));
#128=EDGE_LOOP('',(#298));
#129=EDGE_LOOP('',(#299));
#130=CIRCLE('',#330,4.188);
#131=CIRCLE('',#331,5.);
#132=CIRCLE('',#333,4.188);
#133=CIRCLE('',#335,5.);
#134=CIRCLE('',#337,4.1);
#135=CIRCLE('',#338,4.6);
#136=CIRCLE('',#340,4.1);
#137=CIRCLE('',#342,8.5);
#138=CIRCLE('',#344,4.1);
#139=CIRCLE('',#345,4.6);
#140=CIRCLE('',#347,4.1);
#141=CIRCLE('',#349,8.5);
#142=CIRCLE('',#351,10.75);
#143=CIRCLE('',#352,10.75);
#144=CIRCLE('',#355,30.0000000000034);
#145=CIRCLE('',#356,30.0000000000034);
#146=CIRCLE('',#358,6.00000000000023);
#147=CIRCLE('',#359,6.00000000000023);
#148=CIRCLE('',#362,5.99999999999859);
#149=CIRCLE('',#363,5.99999999999859);
#150=CIRCLE('',#365,29.9999999999995);
#151=CIRCLE('',#366,29.9999999999995);
#152=CIRCLE('',#368,6.00000000000023);
#153=CIRCLE('',#369,6.00000000000023);
#154=CIRCLE('',#372,6.00000000000023);
#155=CIRCLE('',#373,6.00000000000023);
#156=VERTEX_POINT('',#486);
#157=VERTEX_POINT('',#488);
#158=VERTEX_POINT('',#491);
#159=VERTEX_POINT('',#494);
#160=VERTEX_POINT('',#497);
#161=VERTEX_POINT('',#499);
#162=VERTEX_POINT('',#502);
#163=VERTEX_POINT('',#505);
#164=VERTEX_POINT('',#508);
#165=VERTEX_POINT('',#510);
#166=VERTEX_POINT('',#513);
#167=VERTEX_POINT('',#516);
#168=VERTEX_POINT('',#519);
#169=VERTEX_POINT('',#521);
#170=VERTEX_POINT('',#525);
#171=VERTEX_POINT('',#526);
#172=VERTEX_POINT('',#528);
#173=VERTEX_POINT('',#530);
#174=VERTEX_POINT('',#534);
#175=VERTEX_POINT('',#536);
#176=VERTEX_POINT('',#540);
#177=VERTEX_POINT('',#542);
#178=VERTEX_POINT('',#546);
#179=VERTEX_POINT('',#548);
#180=VERTEX_POINT('',#552);
#181=VERTEX_POINT('',#554);
#182=VERTEX_POINT('',#558);
#183=VERTEX_POINT('',#560);
#184=VERTEX_POINT('',#564);
#185=VERTEX_POINT('',#566);
#186=EDGE_CURVE('',#156,#156,#130,.T.);
#187=EDGE_CURVE('',#157,#157,#131,.T.);
#188=EDGE_CURVE('',#158,#158,#132,.T.);
#189=EDGE_CURVE('',#159,#159,#133,.T.);
#190=EDGE_CURVE('',#160,#160,#134,.T.);
#191=EDGE_CURVE('',#161,#161,#135,.T.);
#192=EDGE_CURVE('',#162,#162,#136,.T.);
#193=EDGE_CURVE('',#163,#163,#137,.T.);
#194=EDGE_CURVE('',#164,#164,#138,.T.);
#195=EDGE_CURVE('',#165,#165,#139,.T.);
#196=EDGE_CURVE('',#166,#166,#140,.T.);
#197=EDGE_CURVE('',#167,#167,#141,.T.);
#198=EDGE_CURVE('',#168,#168,#142,.T.);
#199=EDGE_CURVE('',#169,#169,#143,.T.);
#200=EDGE_CURVE('',#170,#171,#144,.T.);
#201=EDGE_CURVE('',#172,#171,#15,.T.);
#202=EDGE_CURVE('',#173,#172,#145,.T.);
#203=EDGE_CURVE('',#173,#170,#16,.T.);
#204=EDGE_CURVE('',#171,#174,#146,.T.);
#205=EDGE_CURVE('',#175,#174,#17,.T.);
#206=EDGE_CURVE('',#172,#175,#147,.T.);
#207=EDGE_CURVE('',#174,#176,#18,.T.);
#208=EDGE_CURVE('',#177,#176,#19,.T.);
#209=EDGE_CURVE('',#175,#177,#20,.T.);
#210=EDGE_CURVE('',#176,#178,#148,.T.);
#211=EDGE_CURVE('',#179,#178,#21,.T.);
#212=EDGE_CURVE('',#177,#179,#149,.T.);
#213=EDGE_CURVE('',#178,#180,#150,.T.);
#214=EDGE_CURVE('',#181,#180,#22,.T.);
#215=EDGE_CURVE('',#179,#181,#151,.T.);
#216=EDGE_CURVE('',#180,#182,#152,.T.);
#217=EDGE_CURVE('',#183,#182,#23,.T.);
#218=EDGE_CURVE('',#181,#183,#153,.T.);
#219=EDGE_CURVE('',#182,#184,#24,.T.);
#220=EDGE_CURVE('',#185,#184,#25,.T.);
#221=EDGE_CURVE('',#183,#185,#26,.T.);
#222=EDGE_CURVE('',#184,#170,#154,.T.);
#223=EDGE_CURVE('',#185,#173,#155,.T.);
#224=ORIENTED_EDGE('',*,*,#186,.T.);
#225=ORIENTED_EDGE('',*,*,#187,.F.);
#226=ORIENTED_EDGE('',*,*,#188,.T.);
#227=ORIENTED_EDGE('',*,*,#186,.F.);
#228=ORIENTED_EDGE('',*,*,#189,.F.);
#229=ORIENTED_EDGE('',*,*,#188,.F.);
#230=ORIENTED_EDGE('',*,*,#190,.T.);
#231=ORIENTED_EDGE('',*,*,#191,.F.);
#232=ORIENTED_EDGE('',*,*,#192,.T.);
#233=ORIENTED_EDGE('',*,*,#190,.F.);
#234=ORIENTED_EDGE('',*,*,#193,.F.);
#235=ORIENTED_EDGE('',*,*,#192,.F.);
#236=ORIENTED_EDGE('',*,*,#194,.T.);
#237=ORIENTED_EDGE('',*,*,#195,.F.);
#238=ORIENTED_EDGE('',*,*,#196,.T.);
#239=ORIENTED_EDGE('',*,*,#194,.F.);
#240=ORIENTED_EDGE('',*,*,#197,.F.);
#241=ORIENTED_EDGE('',*,*,#196,.F.);
#242=ORIENTED_EDGE('',*,*,#198,.F.);
#243=ORIENTED_EDGE('',*,*,#199,.F.);
#244=ORIENTED_EDGE('',*,*,#198,.T.);
#245=ORIENTED_EDGE('',*,*,#189,.T.);
#246=ORIENTED_EDGE('',*,*,#200,.T.);
#247=ORIENTED_EDGE('',*,*,#201,.F.);
#248=ORIENTED_EDGE('',*,*,#202,.F.);
#249=ORIENTED_EDGE('',*,*,#203,.T.);
#250=ORIENTED_EDGE('',*,*,#204,.T.);
#251=ORIENTED_EDGE('',*,*,#205,.F.);
#252=ORIENTED_EDGE('',*,*,#206,.F.);
#253=ORIENTED_EDGE('',*,*,#201,.T.);
#254=ORIENTED_EDGE('',*,*,#207,.T.);
#255=ORIENTED_EDGE('',*,*,#208,.F.);
#256=ORIENTED_EDGE('',*,*,#209,.F.);
#257=ORIENTED_EDGE('',*,*,#205,.T.);
#258=ORIENTED_EDGE('',*,*,#210,.T.);
#259=ORIENTED_EDGE('',*,*,#211,.F.);
#260=ORIENTED_EDGE('',*,*,#212,.F.);
#261=ORIENTED_EDGE('',*,*,#208,.T.);
#262=ORIENTED_EDGE('',*,*,#213,.T.);
#263=ORIENTED_EDGE('',*,*,#214,.F.);
#264=ORIENTED_EDGE('',*,*,#215,.F.);
#265=ORIENTED_EDGE('',*,*,#211,.T.);
#266=ORIENTED_EDGE('',*,*,#216,.T.);
#267=ORIENTED_EDGE('',*,*,#217,.F.);
#268=ORIENTED_EDGE('',*,*,#218,.F.);
#269=ORIENTED_EDGE('',*,*,#214,.T.);
#270=ORIENTED_EDGE('',*,*,#219,.T.);
#271=ORIENTED_EDGE('',*,*,#220,.F.);
#272=ORIENTED_EDGE('',*,*,#221,.F.);
#273=ORIENTED_EDGE('',*,*,#217,.T.);
#274=ORIENTED_EDGE('',*,*,#222,.T.);
#275=ORIENTED_EDGE('',*,*,#203,.F.);
#276=ORIENTED_EDGE('',*,*,#223,.F.);
#277=ORIENTED_EDGE('',*,*,#220,.T.);
#278=ORIENTED_EDGE('',*,*,#200,.F.);
#279=ORIENTED_EDGE('',*,*,#222,.F.);
#280=ORIENTED_EDGE('',*,*,#219,.F.);
#281=ORIENTED_EDGE('',*,*,#216,.F.);
#282=ORIENTED_EDGE('',*,*,#213,.F.);
#283=ORIENTED_EDGE('',*,*,#210,.F.);
#284=ORIENTED_EDGE('',*,*,#207,.F.);
#285=ORIENTED_EDGE('',*,*,#204,.F.);
#286=ORIENTED_EDGE('',*,*,#187,.T.);
#287=ORIENTED_EDGE('',*,*,#191,.T.);
#288=ORIENTED_EDGE('',*,*,#195,.T.);
#289=ORIENTED_EDGE('',*,*,#223,.T.);
#290=ORIENTED_EDGE('',*,*,#202,.T.);
#291=ORIENTED_EDGE('',*,*,#206,.T.);
#292=ORIENTED_EDGE('',*,*,#209,.T.);
#293=ORIENTED_EDGE('',*,*,#212,.T.);
#294=ORIENTED_EDGE('',*,*,#215,.T.);
#295=ORIENTED_EDGE('',*,*,#218,.T.);
#296=ORIENTED_EDGE('',*,*,#221,.T.);
#297=ORIENTED_EDGE('',*,*,#193,.T.);
#298=ORIENTED_EDGE('',*,*,#197,.T.);
#299=ORIENTED_EDGE('',*,*,#199,.T.);
#300=CONICAL_SURFACE('',#329,4.594,45.);
#301=CONICAL_SURFACE('',#334,4.594,45.);
#302=CONICAL_SURFACE('',#336,4.35,45.);
#303=CONICAL_SURFACE('',#341,6.3,45.);
#304=CONICAL_SURFACE('',#343,4.35,45.);
#305=CONICAL_SURFACE('',#348,6.3,45.);
#306=ADVANCED_FACE('',(#71,#54),#300,.F.);
#307=ADVANCED_FACE('',(#72,#55),#44,.F.);
#308=ADVANCED_FACE('',(#73,#56),#301,.F.);
#309=ADVANCED_FACE('',(#74,#57),#302,.F.);
#310=ADVANCED_FACE('',(#75,#58),#45,.F.);
#311=ADVANCED_FACE('',(#76,#59),#303,.F.);
#312=ADVANCED_FACE('',(#77,#60),#304,.F.);
#313=ADVANCED_FACE('',(#78,#61),#46,.F.);
#314=ADVANCED_FACE('',(#79,#62),#305,.F.);
#315=ADVANCED_FACE('',(#80,#63),#47,.T.);
#316=ADVANCED_FACE('',(#81,#64),#39,.T.);
#317=ADVANCED_FACE('',(#82),#48,.T.);
#318=ADVANCED_FACE('',(#83),#49,.T.);
#319=ADVANCED_FACE('',(#84),#40,.T.);
#320=ADVANCED_FACE('',(#85),#50,.T.);
#321=ADVANCED_FACE('',(#86),#51,.T.);
#322=ADVANCED_FACE('',(#87),#52,.T.);
#323=ADVANCED_FACE('',(#88),#41,.T.);
#324=ADVANCED_FACE('',(#89),#53,.T.);
#325=ADVANCED_FACE('',(#90,#65,#66,#67),#42,.F.);
#326=ADVANCED_FACE('',(#91,#68,#69,#70),#43,.T.);
#327=CLOSED_SHELL('',(#306,#307,#308,#309,#310,#311,#312,#313,#314,#315,
#316,#317,#318,#319,#320,#321,#322,#323,#324,#325,#326));
#328=AXIS2_PLACEMENT_3D('placement',#484,#376,#377);
#329=AXIS2_PLACEMENT_3D('',#485,#378,#379);
#330=AXIS2_PLACEMENT_3D('',#487,#380,#381);
#331=AXIS2_PLACEMENT_3D('',#489,#382,#383);
#332=AXIS2_PLACEMENT_3D('',#490,#384,#385);
#333=AXIS2_PLACEMENT_3D('',#492,#386,#387);
#334=AXIS2_PLACEMENT_3D('',#493,#388,#389);
#335=AXIS2_PLACEMENT_3D('',#495,#390,#391);
#336=AXIS2_PLACEMENT_3D('',#496,#392,#393);
#337=AXIS2_PLACEMENT_3D('',#498,#394,#395);
#338=AXIS2_PLACEMENT_3D('',#500,#396,#397);
#339=AXIS2_PLACEMENT_3D('',#501,#398,#399);
#340=AXIS2_PLACEMENT_3D('',#503,#400,#401);
#341=AXIS2_PLACEMENT_3D('',#504,#402,#403);
#342=AXIS2_PLACEMENT_3D('',#506,#404,#405);
#343=AXIS2_PLACEMENT_3D('',#507,#406,#407);
#344=AXIS2_PLACEMENT_3D('',#509,#408,#409);
#345=AXIS2_PLACEMENT_3D('',#511,#410,#411);
#346=AXIS2_PLACEMENT_3D('',#512,#412,#413);
#347=AXIS2_PLACEMENT_3D('',#514,#414,#415);
#348=AXIS2_PLACEMENT_3D('',#515,#416,#417);
#349=AXIS2_PLACEMENT_3D('',#517,#418,#419);
#350=AXIS2_PLACEMENT_3D('',#518,#420,#421);
#351=AXIS2_PLACEMENT_3D('',#520,#422,#423);
#352=AXIS2_PLACEMENT_3D('',#522,#424,#425);
#353=AXIS2_PLACEMENT_3D('',#523,#426,#427);
#354=AXIS2_PLACEMENT_3D('',#524,#428,#429);
#355=AXIS2_PLACEMENT_3D('',#527,#430,#431);
#356=AXIS2_PLACEMENT_3D('',#531,#433,#434);
#357=AXIS2_PLACEMENT_3D('',#533,#436,#437);
#358=AXIS2_PLACEMENT_3D('',#535,#438,#439);
#359=AXIS2_PLACEMENT_3D('',#538,#441,#442);
#360=AXIS2_PLACEMENT_3D('',#539,#443,#444);
#361=AXIS2_PLACEMENT_3D('',#545,#448,#449);
#362=AXIS2_PLACEMENT_3D('',#547,#450,#451);
#363=AXIS2_PLACEMENT_3D('',#550,#453,#454);
#364=AXIS2_PLACEMENT_3D('',#551,#455,#456);
#365=AXIS2_PLACEMENT_3D('',#553,#457,#458);
#366=AXIS2_PLACEMENT_3D('',#556,#460,#461);
#367=AXIS2_PLACEMENT_3D('',#557,#462,#463);
#368=AXIS2_PLACEMENT_3D('',#559,#464,#465);
#369=AXIS2_PLACEMENT_3D('',#562,#467,#468);
#370=AXIS2_PLACEMENT_3D('',#563,#469,#470);
#371=AXIS2_PLACEMENT_3D('',#569,#474,#475);
#372=AXIS2_PLACEMENT_3D('',#570,#476,#477);
#373=AXIS2_PLACEMENT_3D('',#571,#478,#479);
#374=AXIS2_PLACEMENT_3D('',#572,#480,#481);
#375=AXIS2_PLACEMENT_3D('',#573,#482,#483);
#376=DIRECTION('axis',(0.,0.,1.));
#377=DIRECTION('refdir',(1.,0.,0.));
#378=DIRECTION('center_axis',(0.,0.,-1.));
#379=DIRECTION('ref_axis',(-1.,0.,0.));
#380=DIRECTION('center_axis',(0.,0.,1.));
#381=DIRECTION('ref_axis',(-1.,0.,0.));
#382=DIRECTION('center_axis',(0.,0.,1.));
#383=DIRECTION('ref_axis',(-1.,0.,0.));
#384=DIRECTION('center_axis',(0.,0.,1.));
#385=DIRECTION('ref_axis',(-1.,0.,0.));
#386=DIRECTION('center_axis',(0.,0.,1.));
#387=DIRECTION('ref_axis',(-1.,0.,0.));
#388=DIRECTION('center_axis',(0.,0.,1.));
#389=DIRECTION('ref_axis',(-1.,0.,0.));
#390=DIRECTION('center_axis',(0.,0.,-1.));
#391=DIRECTION('ref_axis',(-1.,0.,0.));
#392=DIRECTION('center_axis',(0.,0.,-1.));
#393=DIRECTION('ref_axis',(-1.,0.,0.));
#394=DIRECTION('center_axis',(0.,0.,1.));
#395=DIRECTION('ref_axis',(-1.,0.,0.));
#396=DIRECTION('center_axis',(0.,0.,1.));
#397=DIRECTION('ref_axis',(-1.,0.,0.));
#398=DIRECTION('center_axis',(0.,0.,1.));
#399=DIRECTION('ref_axis',(-1.,0.,0.));
#400=DIRECTION('center_axis',(0.,0.,1.));
#401=DIRECTION('ref_axis',(-1.,0.,0.));
#402=DIRECTION('center_axis',(0.,0.,1.));
#403=DIRECTION('ref_axis',(-1.,0.,0.));
#404=DIRECTION('center_axis',(0.,0.,-1.));
#405=DIRECTION('ref_axis',(-1.,0.,0.));
#406=DIRECTION('center_axis',(0.,0.,-1.));
#407=DIRECTION('ref_axis',(-1.,0.,0.));
#408=DIRECTION('center_axis',(0.,0.,1.));
#409=DIRECTION('ref_axis',(-1.,0.,0.));
#410=DIRECTION('center_axis',(0.,0.,1.));
#411=DIRECTION('ref_axis',(-1.,0.,0.));
#412=DIRECTION('center_axis',(0.,0.,1.));
#413=DIRECTION('ref_axis',(-1.,0.,0.));
#414=DIRECTION('center_axis',(0.,0.,1.));
#415=DIRECTION('ref_axis',(-1.,0.,0.));
#416=DIRECTION('center_axis',(0.,0.,1.));
#417=DIRECTION('ref_axis',(-1.,0.,0.));
#418=DIRECTION('center_axis',(0.,0.,-1.));
#419=DIRECTION('ref_axis',(-1.,0.,0.));
#420=DIRECTION('center_axis',(0.,0.,1.));
#421=DIRECTION('ref_axis',(-1.,0.,0.));
#422=DIRECTION('center_axis',(0.,0.,1.));
#423=DIRECTION('ref_axis',(-1.,0.,0.));
#424=DIRECTION('center_axis',(0.,0.,-1.));
#425=DIRECTION('ref_axis',(-1.,0.,0.));
#426=DIRECTION('center_axis',(0.,0.,1.));
#427=DIRECTION('ref_axis',(1.,0.,0.));
#428=DIRECTION('center_axis',(0.,0.,-1.));
#429=DIRECTION('ref_axis',(-0.374999999999958,-0.927024810886975,0.));
#430=DIRECTION('center_axis',(0.,0.,1.));
#431=DIRECTION('ref_axis',(-0.374999999999958,-0.927024810886975,0.));
#432=DIRECTION('',(0.,0.,-1.));
#433=DIRECTION('center_axis',(0.,0.,1.));
#434=DIRECTION('ref_axis',(-0.374999999999958,-0.927024810886975,0.));
#435=DIRECTION('',(0.,0.,-1.));
#436=DIRECTION('center_axis',(0.,0.,-1.));
#437=DIRECTION('ref_axis',(0.375000000000024,-0.927024810886948,0.));
#438=DIRECTION('center_axis',(0.,0.,1.));
#439=DIRECTION('ref_axis',(0.375000000000024,-0.927024810886948,0.));
#440=DIRECTION('',(0.,0.,-1.));
#441=DIRECTION('center_axis',(0.,0.,1.));
#442=DIRECTION('ref_axis',(0.375000000000024,-0.927024810886948,0.));
#443=DIRECTION('center_axis',(1.,0.,0.));
#444=DIRECTION('ref_axis',(0.,0.,-1.));
#445=DIRECTION('',(0.,1.,0.));
#446=DIRECTION('',(0.,0.,-1.));
#447=DIRECTION('',(0.,1.,0.));
#448=DIRECTION('center_axis',(0.,0.,-1.));
#449=DIRECTION('ref_axis',(1.,-9.99200722162875E-14,0.));
#450=DIRECTION('center_axis',(0.,0.,1.));
#451=DIRECTION('ref_axis',(1.,-9.99200722162875E-14,0.));
#452=DIRECTION('',(0.,0.,-1.));
#453=DIRECTION('center_axis',(0.,0.,1.));
#454=DIRECTION('ref_axis',(1.,-9.99200722162875E-14,0.));
#455=DIRECTION('center_axis',(0.,0.,-1.));
#456=DIRECTION('ref_axis',(0.375000007814264,0.927024807725932,0.));
#457=DIRECTION('center_axis',(0.,0.,1.));
#458=DIRECTION('ref_axis',(0.375000007814264,0.927024807725932,0.));
#459=DIRECTION('',(0.,0.,-1.));
#460=DIRECTION('center_axis',(0.,0.,1.));
#461=DIRECTION('ref_axis',(0.375000007814264,0.927024807725932,0.));
#462=DIRECTION('center_axis',(0.,0.,-1.));
#463=DIRECTION('ref_axis',(-0.375000000000024,0.927024810886948,0.));
#464=DIRECTION('center_axis',(0.,0.,1.));
#465=DIRECTION('ref_axis',(-0.375000000000024,0.927024810886948,0.));
#466=DIRECTION('',(0.,0.,-1.));
#467=DIRECTION('center_axis',(0.,0.,1.));
#468=DIRECTION('ref_axis',(-0.375000000000024,0.927024810886948,0.));
#469=DIRECTION('center_axis',(-1.,0.,0.));
#470=DIRECTION('ref_axis',(0.,0.,1.));
#471=DIRECTION('',(0.,-1.,0.));
#472=DIRECTION('',(0.,0.,-1.));
#473=DIRECTION('',(0.,-1.,0.));
#474=DIRECTION('center_axis',(0.,0.,-1.));
#475=DIRECTION('ref_axis',(-1.,1.70234197109184E-14,0.));
#476=DIRECTION('center_axis',(0.,0.,1.));
#477=DIRECTION('ref_axis',(-1.,1.70234197109184E-14,0.));
#478=DIRECTION('center_axis',(0.,0.,1.));
#479=DIRECTION('ref_axis',(-1.,1.70234197109184E-14,0.));
#480=DIRECTION('center_axis',(0.,0.,1.));
#481=DIRECTION('ref_axis',(1.,0.,0.));
#482=DIRECTION('center_axis',(0.,0.,1.));
#483=DIRECTION('ref_axis',(1.,0.,0.));
#484=CARTESIAN_POINT('',(0.,0.,0.));
#485=CARTESIAN_POINT('Origin',(0.,0.,-5.594));
#486=CARTESIAN_POINT('',(-4.188,0.,-5.188));
#487=CARTESIAN_POINT('Origin',(0.,0.,-5.188));
#488=CARTESIAN_POINT('',(-5.,0.,-6.));
#489=CARTESIAN_POINT('Origin',(0.,0.,-6.));
#490=CARTESIAN_POINT('Origin',(0.,0.,6.));
#491=CARTESIAN_POINT('',(-4.188,0.,17.188));
#492=CARTESIAN_POINT('Origin',(0.,0.,17.188));
#493=CARTESIAN_POINT('Origin',(0.,0.,17.594));
#494=CARTESIAN_POINT('',(-5.,0.,18.));
#495=CARTESIAN_POINT('Origin',(0.,0.,18.));
#496=CARTESIAN_POINT('Origin',(0.,20.,-5.75));
#497=CARTESIAN_POINT('',(-4.1,20.,-5.5));
#498=CARTESIAN_POINT('Origin',(0.,20.,-5.5));
#499=CARTESIAN_POINT('',(-4.6,20.,-6.));
#500=CARTESIAN_POINT('Origin',(0.,20.,-6.));
#501=CARTESIAN_POINT('Origin',(0.,20.,-4.95));
#502=CARTESIAN_POINT('',(-4.1,20.,-4.4));
#503=CARTESIAN_POINT('Origin',(0.,20.,-4.4));
#504=CARTESIAN_POINT('Origin',(0.,20.,-2.2));
#505=CARTESIAN_POINT('',(-8.5,20.,0.));
#506=CARTESIAN_POINT('Origin',(0.,20.,0.));
#507=CARTESIAN_POINT('Origin',(0.,-20.,-5.75));
#508=CARTESIAN_POINT('',(-4.1,-20.,-5.5));
#509=CARTESIAN_POINT('Origin',(0.,-20.,-5.5));
#510=CARTESIAN_POINT('',(-4.6,-20.,-6.));
#511=CARTESIAN_POINT('Origin',(0.,-20.,-6.));
#512=CARTESIAN_POINT('Origin',(0.,-20.,-4.95));
#513=CARTESIAN_POINT('',(-4.1,-20.,-4.4));
#514=CARTESIAN_POINT('Origin',(0.,-20.,-4.4));
#515=CARTESIAN_POINT('Origin',(0.,-20.,-2.2));
#516=CARTESIAN_POINT('',(-8.5,-20.,0.));
#517=CARTESIAN_POINT('Origin',(0.,-20.,0.));
#518=CARTESIAN_POINT('Origin',(0.,0.,9.));
#519=CARTESIAN_POINT('',(-10.75,0.,18.));
#520=CARTESIAN_POINT('Origin',(0.,0.,18.));
#521=CARTESIAN_POINT('',(-10.75,0.,0.));
#522=CARTESIAN_POINT('Origin',(0.,0.,0.));
#523=CARTESIAN_POINT('Origin',(-5.375,0.,18.));
#524=CARTESIAN_POINT('Origin',(0.,3.38395977905748E-12,0.));
#525=CARTESIAN_POINT('',(-11.25,-27.810744326609,-6.));
#526=CARTESIAN_POINT('',(11.25,-27.810744326609,-6.));
#527=CARTESIAN_POINT('Origin',(0.,3.38395977905748E-12,-6.));
#528=CARTESIAN_POINT('',(11.25,-27.810744326609,0.));
#529=CARTESIAN_POINT('',(11.25,-27.810744326609,0.));
#530=CARTESIAN_POINT('',(-11.25,-27.810744326609,0.));
#531=CARTESIAN_POINT('Origin',(0.,3.38395977905748E-12,0.));
#532=CARTESIAN_POINT('',(-11.25,-27.810744326609,0.));
#533=CARTESIAN_POINT('Origin',(8.99999999999977,-22.2485954612871,0.));
#534=CARTESIAN_POINT('',(15.,-22.248595461287,-6.));
#535=CARTESIAN_POINT('Origin',(8.99999999999977,-22.2485954612871,-6.));
#536=CARTESIAN_POINT('',(15.,-22.248595461287,0.));
#537=CARTESIAN_POINT('',(15.,-22.248595461287,0.));
#538=CARTESIAN_POINT('Origin',(8.99999999999977,-22.2485954612871,0.));
#539=CARTESIAN_POINT('Origin',(15.,-22.248595461287,0.));
#540=CARTESIAN_POINT('',(15.,22.248595461287,-6.));
#541=CARTESIAN_POINT('',(15.,-22.248595461287,-6.));
#542=CARTESIAN_POINT('',(15.,22.248595461287,0.));
#543=CARTESIAN_POINT('',(15.,22.248595461287,0.));
#544=CARTESIAN_POINT('',(15.,-22.248595461287,0.));
#545=CARTESIAN_POINT('Origin',(9.00000000000141,22.2485954612876,0.));
#546=CARTESIAN_POINT('',(11.250000234427,27.810744231778,-6.));
#547=CARTESIAN_POINT('Origin',(9.00000000000141,22.2485954612876,-6.));
#548=CARTESIAN_POINT('',(11.250000234427,27.810744231778,0.));
#549=CARTESIAN_POINT('',(11.250000234427,27.810744231778,0.));
#550=CARTESIAN_POINT('Origin',(9.00000000000141,22.2485954612876,0.));
#551=CARTESIAN_POINT('Origin',(-7.51620987671231E-13,4.79616346638068E-13,
0.));
#552=CARTESIAN_POINT('',(-11.25,27.810744326609,-6.));
#553=CARTESIAN_POINT('Origin',(-7.51620987671231E-13,4.79616346638068E-13,
-6.));
#554=CARTESIAN_POINT('',(-11.25,27.810744326609,0.));
#555=CARTESIAN_POINT('',(-11.25,27.810744326609,0.));
#556=CARTESIAN_POINT('Origin',(-7.51620987671231E-13,4.79616346638068E-13,
0.));
#557=CARTESIAN_POINT('Origin',(-8.99999999999977,22.2485954612871,0.));
#558=CARTESIAN_POINT('',(-15.,22.248595461287,-6.));
#559=CARTESIAN_POINT('Origin',(-8.99999999999977,22.2485954612871,-6.));
#560=CARTESIAN_POINT('',(-15.,22.248595461287,0.));
#561=CARTESIAN_POINT('',(-15.,22.248595461287,0.));
#562=CARTESIAN_POINT('Origin',(-8.99999999999977,22.2485954612871,0.));
#563=CARTESIAN_POINT('Origin',(-15.,22.248595461287,0.));
#564=CARTESIAN_POINT('',(-15.,-22.248595461287,-6.));
#565=CARTESIAN_POINT('',(-15.,22.248595461287,-6.));
#566=CARTESIAN_POINT('',(-15.,-22.248595461287,0.));
#567=CARTESIAN_POINT('',(-15.,-22.248595461287,0.));
#568=CARTESIAN_POINT('',(-15.,22.248595461287,0.));
#569=CARTESIAN_POINT('Origin',(-8.99999999999977,-22.2485954612871,0.));
#570=CARTESIAN_POINT('Origin',(-8.99999999999977,-22.2485954612871,-6.));
#571=CARTESIAN_POINT('Origin',(-8.99999999999977,-22.2485954612871,0.));
#572=CARTESIAN_POINT('Origin',(1.32893920200015E-10,-4.44671521826479E-10,
-6.));
#573=CARTESIAN_POINT('Origin',(1.32893140936119E-10,-4.44671186333279E-10,
0.));
#574=UNCERTAINTY_MEASURE_WITH_UNIT(LENGTH_MEASURE(0.01),#578,
'DISTANCE_ACCURACY_VALUE',
'Maximum model space distance between geometric entities at asserted c
onnectivities');
#575=UNCERTAINTY_MEASURE_WITH_UNIT(LENGTH_MEASURE(1.E-6),#578,
'DISTANCE_ACCURACY_VALUE',
'Maximum model space distance between geometric entities at asserted c
onnectivities');
#576=(
GEOMETRIC_REPRESENTATION_CONTEXT(3)
GLOBAL_UNCERTAINTY_ASSIGNED_CONTEXT((#574))
GLOBAL_UNIT_ASSIGNED_CONTEXT((#578,#581,#579))
REPRESENTATION_CONTEXT('','3D')
);
#577=(
GEOMETRIC_REPRESENTATION_CONTEXT(3)
GLOBAL_UNCERTAINTY_ASSIGNED_CONTEXT((#575))
GLOBAL_UNIT_ASSIGNED_CONTEXT((#578,#581,#579))
REPRESENTATION_CONTEXT('','3D')
);
#578=(
LENGTH_UNIT()
NAMED_UNIT(*)
SI_UNIT(.MILLI.,.METRE.)
);
#579=(
NAMED_UNIT(*)
SI_UNIT($,.STERADIAN.)
SOLID_ANGLE_UNIT()
);
#580=DIMENSIONAL_EXPONENTS(0.,0.,0.,0.,0.,0.,0.);
#581=(
CONVERSION_BASED_UNIT('degree',#583)
NAMED_UNIT(#580)
PLANE_ANGLE_UNIT()
);
#582=(
NAMED_UNIT(*)
PLANE_ANGLE_UNIT()
SI_UNIT($,.RADIAN.)
);
#583=PLANE_ANGLE_MEASURE_WITH_UNIT(PLANE_ANGLE_MEASURE(0.01745329252),#582);
#584=SHAPE_DEFINITION_REPRESENTATION(#585,#586);
#585=PRODUCT_DEFINITION_SHAPE('',$,#588);
#586=SHAPE_REPRESENTATION('',(#328),#576);
#587=PRODUCT_DEFINITION_CONTEXT('part definition',#592,'design');
#588=PRODUCT_DEFINITION('13284_KriTec_Adapterflasch_60x30_M10x24',
'13284_KriTec_Adapterflasch_60x30_M10x24',#589,#587);
#589=PRODUCT_DEFINITION_FORMATION('',$,#594);
#590=PRODUCT_RELATED_PRODUCT_CATEGORY(
'13284_KriTec_Adapterflasch_60x30_M10x24',
'13284_KriTec_Adapterflasch_60x30_M10x24',(#594));
#591=APPLICATION_PROTOCOL_DEFINITION('international standard',
'automotive_design',2009,#592);
#592=APPLICATION_CONTEXT(
'Core Data for Automotive Mechanical Design Process');
#593=PRODUCT_CONTEXT('part definition',#592,'mechanical');
#594=PRODUCT('13284_KriTec_Adapterflasch_60x30_M10x24',
'13284_KriTec_Adapterflasch_60x30_M10x24',$,(#593));
#595=PRESENTATION_STYLE_ASSIGNMENT((#596));
#596=SURFACE_STYLE_USAGE(.BOTH.,#597);
#597=SURFACE_SIDE_STYLE('',(#598));
#598=SURFACE_STYLE_FILL_AREA(#599);
#599=FILL_AREA_STYLE('',(#600));
#600=FILL_AREA_STYLE_COLOUR('',#601);
#601=COLOUR_RGB('',0.250980392156863,0.250980392156863,0.250980392156863);
ENDSEC;
END-ISO-10303-21;
