ISO-10303-21;
HEADER;
/* Generated by software containing ST-Developer
 * from STEP Tools, Inc. (www.steptools.com) 
 */

FILE_DESCRIPTION(
/* description */ (''),
/* implementation_level */ '2;1');

FILE_NAME(
/* name */ 
'S:\\Bilder_neu\\13217_KriTec_Anschwei\X\DFwinkel_10_80x80x8_L=80_Stah
l\\Inventordateien\\13217_KriTec_Anschwei\X\DFwinkel_10_80x80x8_L_80_S
tahl.stp',
/* time_stamp */ '2015-03-04T16:22:44+01:00',
/* author */ ('kostic'),
/* organization */ (''),
/* preprocessor_version */ 'ST-DEVELOPER v15.2',
/* originating_system */ 'Autodesk Inventor 2014',
/* authorisation */ '');

FILE_SCHEMA (('CONFIG_CONTROL_DESIGN'));
ENDSEC;

DATA;
#10=SHAPE_REPRESENTATION_RELATIONSHIP('SRR','None',#416,#11);
#11=ADVANCED_BREP_SHAPE_REPRESENTATION($,(#245),#407);
#12=STYLED_ITEM($,(#424),#245);
#13=LINE($,#353,#34);
#14=LINE($,#355,#35);
#15=LINE($,#357,#36);
#16=LINE($,#358,#37);
#17=LINE($,#361,#38);
#18=LINE($,#363,#39);
#19=LINE($,#364,#40);
#20=LINE($,#367,#41);
#21=LINE($,#369,#42);
#22=LINE($,#370,#43);
#23=LINE($,#373,#44);
#24=LINE($,#375,#45);
#25=LINE($,#376,#46);
#26=LINE($,#381,#47);
#27=LINE($,#385,#48);
#28=LINE($,#387,#49);
#29=LINE($,#388,#50);
#30=LINE($,#393,#51);
#31=LINE($,#397,#52);
#32=LINE($,#399,#53);
#33=LINE($,#400,#54);
#34=VECTOR($,#286,3.);
#35=VECTOR($,#287,80.);
#36=VECTOR($,#288,3.);
#37=VECTOR($,#289,80.);
#38=VECTOR($,#292,80.);
#39=VECTOR($,#293,80.);
#40=VECTOR($,#294,80.);
#41=VECTOR($,#297,80.);
#42=VECTOR($,#298,80.);
#43=VECTOR($,#299,80.);
#44=VECTOR($,#302,3.);
#45=VECTOR($,#303,80.);
#46=VECTOR($,#304,3.);
#47=VECTOR($,#309,80.);
#48=VECTOR($,#314,57.);
#49=VECTOR($,#315,80.);
#50=VECTOR($,#316,57.);
#51=VECTOR($,#321,80.);
#52=VECTOR($,#326,57.);
#53=VECTOR($,#327,80.);
#54=VECTOR($,#328,57.);
#55=PLANE($,#253);
#56=PLANE($,#254);
#57=PLANE($,#255);
#58=PLANE($,#256);
#59=PLANE($,#260);
#60=PLANE($,#264);
#61=PLANE($,#268);
#62=PLANE($,#269);
#63=FACE_BOUND($,#83,.T.);
#64=FACE_BOUND($,#85,.T.);
#65=FACE_BOUND($,#88,.T.);
#66=FACE_BOUND($,#89,.T.);
#67=FACE_BOUND($,#90,.T.);
#68=FACE_BOUND($,#93,.T.);
#69=FACE_BOUND($,#94,.T.);
#70=FACE_BOUND($,#95,.T.);
#71=FACE_OUTER_BOUND($,#82,.T.);
#72=FACE_OUTER_BOUND($,#84,.T.);
#73=FACE_OUTER_BOUND($,#86,.T.);
#74=FACE_OUTER_BOUND($,#87,.T.);
#75=FACE_OUTER_BOUND($,#91,.T.);
#76=FACE_OUTER_BOUND($,#92,.T.);
#77=FACE_OUTER_BOUND($,#96,.T.);
#78=FACE_OUTER_BOUND($,#97,.T.);
#79=FACE_OUTER_BOUND($,#98,.T.);
#80=FACE_OUTER_BOUND($,#99,.T.);
#81=FACE_OUTER_BOUND($,#100,.T.);
#82=EDGE_LOOP($,(#164));
#83=EDGE_LOOP($,(#165));
#84=EDGE_LOOP($,(#166));
#85=EDGE_LOOP($,(#167));
#86=EDGE_LOOP($,(#168,#169,#170,#171));
#87=EDGE_LOOP($,(#172,#173,#174,#175));
#88=EDGE_LOOP($,(#176));
#89=EDGE_LOOP($,(#177));
#90=EDGE_LOOP($,(#178,#179,#180,#181));
#91=EDGE_LOOP($,(#182,#183,#184,#185));
#92=EDGE_LOOP($,(#186,#187,#188,#189));
#93=EDGE_LOOP($,(#190));
#94=EDGE_LOOP($,(#191));
#95=EDGE_LOOP($,(#192,#193,#194,#195));
#96=EDGE_LOOP($,(#196,#197,#198,#199));
#97=EDGE_LOOP($,(#200,#201,#202,#203));
#98=EDGE_LOOP($,(#204,#205,#206,#207));
#99=EDGE_LOOP($,(#208,#209,#210,#211,#212,#213,#214,#215,#216));
#100=EDGE_LOOP($,(#217,#218,#219,#220,#221,#222,#223,#224,#225));
#101=CIRCLE($,#248,4.5);
#102=CIRCLE($,#249,4.5);
#103=CIRCLE($,#251,4.5);
#104=CIRCLE($,#252,4.5);
#105=CIRCLE($,#258,5.);
#106=CIRCLE($,#259,5.);
#107=CIRCLE($,#262,10.);
#108=CIRCLE($,#263,10.);
#109=CIRCLE($,#266,5.);
#110=CIRCLE($,#267,5.);
#111=VERTEX_POINT($,#341);
#112=VERTEX_POINT($,#343);
#113=VERTEX_POINT($,#346);
#114=VERTEX_POINT($,#348);
#115=VERTEX_POINT($,#351);
#116=VERTEX_POINT($,#352);
#117=VERTEX_POINT($,#354);
#118=VERTEX_POINT($,#356);
#119=VERTEX_POINT($,#360);
#120=VERTEX_POINT($,#362);
#121=VERTEX_POINT($,#366);
#122=VERTEX_POINT($,#368);
#123=VERTEX_POINT($,#372);
#124=VERTEX_POINT($,#374);
#125=VERTEX_POINT($,#378);
#126=VERTEX_POINT($,#380);
#127=VERTEX_POINT($,#384);
#128=VERTEX_POINT($,#386);
#129=VERTEX_POINT($,#390);
#130=VERTEX_POINT($,#392);
#131=VERTEX_POINT($,#396);
#132=VERTEX_POINT($,#398);
#133=EDGE_CURVE($,#111,#111,#101,.T.);
#134=EDGE_CURVE($,#112,#112,#102,.T.);
#135=EDGE_CURVE($,#113,#113,#103,.T.);
#136=EDGE_CURVE($,#114,#114,#104,.T.);
#137=EDGE_CURVE($,#115,#116,#13,.T.);
#138=EDGE_CURVE($,#117,#116,#14,.T.);
#139=EDGE_CURVE($,#118,#117,#15,.T.);
#140=EDGE_CURVE($,#118,#115,#16,.T.);
#141=EDGE_CURVE($,#116,#119,#17,.T.);
#142=EDGE_CURVE($,#120,#119,#18,.T.);
#143=EDGE_CURVE($,#117,#120,#19,.T.);
#144=EDGE_CURVE($,#119,#121,#20,.T.);
#145=EDGE_CURVE($,#122,#121,#21,.T.);
#146=EDGE_CURVE($,#120,#122,#22,.T.);
#147=EDGE_CURVE($,#121,#123,#23,.T.);
#148=EDGE_CURVE($,#124,#123,#24,.T.);
#149=EDGE_CURVE($,#122,#124,#25,.T.);
#150=EDGE_CURVE($,#123,#125,#105,.T.);
#151=EDGE_CURVE($,#126,#125,#26,.T.);
#152=EDGE_CURVE($,#124,#126,#106,.T.);
#153=EDGE_CURVE($,#125,#127,#27,.T.);
#154=EDGE_CURVE($,#128,#127,#28,.T.);
#155=EDGE_CURVE($,#126,#128,#29,.T.);
#156=EDGE_CURVE($,#127,#129,#107,.T.);
#157=EDGE_CURVE($,#130,#129,#30,.T.);
#158=EDGE_CURVE($,#128,#130,#108,.T.);
#159=EDGE_CURVE($,#129,#131,#31,.T.);
#160=EDGE_CURVE($,#132,#131,#32,.T.);
#161=EDGE_CURVE($,#130,#132,#33,.T.);
#162=EDGE_CURVE($,#131,#115,#109,.T.);
#163=EDGE_CURVE($,#132,#118,#110,.T.);
#164=ORIENTED_EDGE($,*,*,#133,.F.);
#165=ORIENTED_EDGE($,*,*,#134,.F.);
#166=ORIENTED_EDGE($,*,*,#135,.F.);
#167=ORIENTED_EDGE($,*,*,#136,.F.);
#168=ORIENTED_EDGE($,*,*,#137,.T.);
#169=ORIENTED_EDGE($,*,*,#138,.F.);
#170=ORIENTED_EDGE($,*,*,#139,.F.);
#171=ORIENTED_EDGE($,*,*,#140,.T.);
#172=ORIENTED_EDGE($,*,*,#141,.T.);
#173=ORIENTED_EDGE($,*,*,#142,.F.);
#174=ORIENTED_EDGE($,*,*,#143,.F.);
#175=ORIENTED_EDGE($,*,*,#138,.T.);
#176=ORIENTED_EDGE($,*,*,#134,.T.);
#177=ORIENTED_EDGE($,*,*,#136,.T.);
#178=ORIENTED_EDGE($,*,*,#144,.T.);
#179=ORIENTED_EDGE($,*,*,#145,.F.);
#180=ORIENTED_EDGE($,*,*,#146,.F.);
#181=ORIENTED_EDGE($,*,*,#142,.T.);
#182=ORIENTED_EDGE($,*,*,#147,.T.);
#183=ORIENTED_EDGE($,*,*,#148,.F.);
#184=ORIENTED_EDGE($,*,*,#149,.F.);
#185=ORIENTED_EDGE($,*,*,#145,.T.);
#186=ORIENTED_EDGE($,*,*,#150,.T.);
#187=ORIENTED_EDGE($,*,*,#151,.F.);
#188=ORIENTED_EDGE($,*,*,#152,.F.);
#189=ORIENTED_EDGE($,*,*,#148,.T.);
#190=ORIENTED_EDGE($,*,*,#133,.T.);
#191=ORIENTED_EDGE($,*,*,#135,.T.);
#192=ORIENTED_EDGE($,*,*,#153,.T.);
#193=ORIENTED_EDGE($,*,*,#154,.F.);
#194=ORIENTED_EDGE($,*,*,#155,.F.);
#195=ORIENTED_EDGE($,*,*,#151,.T.);
#196=ORIENTED_EDGE($,*,*,#156,.T.);
#197=ORIENTED_EDGE($,*,*,#157,.F.);
#198=ORIENTED_EDGE($,*,*,#158,.F.);
#199=ORIENTED_EDGE($,*,*,#154,.T.);
#200=ORIENTED_EDGE($,*,*,#159,.T.);
#201=ORIENTED_EDGE($,*,*,#160,.F.);
#202=ORIENTED_EDGE($,*,*,#161,.F.);
#203=ORIENTED_EDGE($,*,*,#157,.T.);
#204=ORIENTED_EDGE($,*,*,#162,.T.);
#205=ORIENTED_EDGE($,*,*,#140,.F.);
#206=ORIENTED_EDGE($,*,*,#163,.F.);
#207=ORIENTED_EDGE($,*,*,#160,.T.);
#208=ORIENTED_EDGE($,*,*,#152,.T.);
#209=ORIENTED_EDGE($,*,*,#155,.T.);
#210=ORIENTED_EDGE($,*,*,#158,.T.);
#211=ORIENTED_EDGE($,*,*,#161,.T.);
#212=ORIENTED_EDGE($,*,*,#163,.T.);
#213=ORIENTED_EDGE($,*,*,#139,.T.);
#214=ORIENTED_EDGE($,*,*,#143,.T.);
#215=ORIENTED_EDGE($,*,*,#146,.T.);
#216=ORIENTED_EDGE($,*,*,#149,.T.);
#217=ORIENTED_EDGE($,*,*,#150,.F.);
#218=ORIENTED_EDGE($,*,*,#147,.F.);
#219=ORIENTED_EDGE($,*,*,#144,.F.);
#220=ORIENTED_EDGE($,*,*,#141,.F.);
#221=ORIENTED_EDGE($,*,*,#137,.F.);
#222=ORIENTED_EDGE($,*,*,#162,.F.);
#223=ORIENTED_EDGE($,*,*,#159,.F.);
#224=ORIENTED_EDGE($,*,*,#156,.F.);
#225=ORIENTED_EDGE($,*,*,#153,.F.);
#226=CYLINDRICAL_SURFACE($,#247,4.5);
#227=CYLINDRICAL_SURFACE($,#250,4.5);
#228=CYLINDRICAL_SURFACE($,#257,5.);
#229=CYLINDRICAL_SURFACE($,#261,10.);
#230=CYLINDRICAL_SURFACE($,#265,5.);
#231=ADVANCED_FACE($,(#71,#63),#226,.F.);
#232=ADVANCED_FACE($,(#72,#64),#227,.F.);
#233=ADVANCED_FACE($,(#73),#55,.T.);
#234=ADVANCED_FACE($,(#74),#56,.T.);
#235=ADVANCED_FACE($,(#65,#66,#67),#57,.T.);
#236=ADVANCED_FACE($,(#75),#58,.T.);
#237=ADVANCED_FACE($,(#76),#228,.T.);
#238=ADVANCED_FACE($,(#68,#69,#70),#59,.T.);
#239=ADVANCED_FACE($,(#77),#229,.F.);
#240=ADVANCED_FACE($,(#78),#60,.T.);
#241=ADVANCED_FACE($,(#79),#230,.T.);
#242=ADVANCED_FACE($,(#80),#61,.F.);
#243=ADVANCED_FACE($,(#81),#62,.T.);
#244=CLOSED_SHELL($,(#231,#232,#233,#234,#235,#236,#237,#238,#239,#240,
#241,#242,#243));
#245=MANIFOLD_SOLID_BREP('Solid1',#244);
#246=AXIS2_PLACEMENT_3D('placement',#339,#270,#271);
#247=AXIS2_PLACEMENT_3D($,#340,#272,#273);
#248=AXIS2_PLACEMENT_3D($,#342,#274,#275);
#249=AXIS2_PLACEMENT_3D($,#344,#276,#277);
#250=AXIS2_PLACEMENT_3D($,#345,#278,#279);
#251=AXIS2_PLACEMENT_3D($,#347,#280,#281);
#252=AXIS2_PLACEMENT_3D($,#349,#282,#283);
#253=AXIS2_PLACEMENT_3D($,#350,#284,#285);
#254=AXIS2_PLACEMENT_3D($,#359,#290,#291);
#255=AXIS2_PLACEMENT_3D($,#365,#295,#296);
#256=AXIS2_PLACEMENT_3D($,#371,#300,#301);
#257=AXIS2_PLACEMENT_3D($,#377,#305,#306);
#258=AXIS2_PLACEMENT_3D($,#379,#307,#308);
#259=AXIS2_PLACEMENT_3D($,#382,#310,#311);
#260=AXIS2_PLACEMENT_3D($,#383,#312,#313);
#261=AXIS2_PLACEMENT_3D($,#389,#317,#318);
#262=AXIS2_PLACEMENT_3D($,#391,#319,#320);
#263=AXIS2_PLACEMENT_3D($,#394,#322,#323);
#264=AXIS2_PLACEMENT_3D($,#395,#324,#325);
#265=AXIS2_PLACEMENT_3D($,#401,#329,#330);
#266=AXIS2_PLACEMENT_3D($,#402,#331,#332);
#267=AXIS2_PLACEMENT_3D($,#403,#333,#334);
#268=AXIS2_PLACEMENT_3D($,#404,#335,#336);
#269=AXIS2_PLACEMENT_3D($,#405,#337,#338);
#270=DIRECTION('axis',(0.,0.,1.));
#271=DIRECTION('refdir',(1.,0.,0.));
#272=DIRECTION('center_axis',(-1.,0.,0.));
#273=DIRECTION('ref_axis',(0.,0.,1.));
#274=DIRECTION('center_axis',(-1.,0.,0.));
#275=DIRECTION('ref_axis',(0.,0.,1.));
#276=DIRECTION('center_axis',(1.,0.,0.));
#277=DIRECTION('ref_axis',(0.,0.,1.));
#278=DIRECTION('center_axis',(-1.,0.,0.));
#279=DIRECTION('ref_axis',(0.,0.,1.));
#280=DIRECTION('center_axis',(-1.,0.,0.));
#281=DIRECTION('ref_axis',(0.,0.,1.));
#282=DIRECTION('center_axis',(1.,0.,0.));
#283=DIRECTION('ref_axis',(0.,0.,1.));
#284=DIRECTION('center_axis',(1.,-2.96059473233375E-015,0.));
#285=DIRECTION('ref_axis',(0.,0.,-1.));
#286=DIRECTION($,(-2.96059473233375E-015,-1.,0.));
#287=DIRECTION($,(0.,0.,1.));
#288=DIRECTION($,(-2.96059473233375E-015,-1.,0.));
#289=DIRECTION($,(0.,0.,1.));
#290=DIRECTION('center_axis',(0.,-1.,0.));
#291=DIRECTION('ref_axis',(0.,0.,-1.));
#292=DIRECTION($,(-1.,0.,0.));
#293=DIRECTION($,(0.,0.,1.));
#294=DIRECTION($,(-1.,0.,0.));
#295=DIRECTION('center_axis',(-1.,0.,0.));
#296=DIRECTION('ref_axis',(0.,0.,1.));
#297=DIRECTION($,(0.,1.,0.));
#298=DIRECTION($,(0.,0.,1.));
#299=DIRECTION($,(0.,1.,0.));
#300=DIRECTION('center_axis',(-2.96059473233375E-015,1.,0.));
#301=DIRECTION('ref_axis',(0.,0.,1.));
#302=DIRECTION($,(1.,2.96059473233375E-015,0.));
#303=DIRECTION($,(0.,0.,1.));
#304=DIRECTION($,(1.,2.96059473233375E-015,0.));
#305=DIRECTION('center_axis',(0.,0.,1.));
#306=DIRECTION('ref_axis',(-1.,0.,0.));
#307=DIRECTION('center_axis',(0.,0.,-1.));
#308=DIRECTION('ref_axis',(-1.,0.,0.));
#309=DIRECTION($,(0.,0.,1.));
#310=DIRECTION('center_axis',(0.,0.,-1.));
#311=DIRECTION('ref_axis',(-1.,0.,0.));
#312=DIRECTION('center_axis',(1.,0.,0.));
#313=DIRECTION('ref_axis',(0.,0.,-1.));
#314=DIRECTION($,(0.,-1.,0.));
#315=DIRECTION($,(0.,0.,1.));
#316=DIRECTION($,(0.,-1.,0.));
#317=DIRECTION('center_axis',(0.,0.,1.));
#318=DIRECTION('ref_axis',(-1.,0.,0.));
#319=DIRECTION('center_axis',(0.,0.,1.));
#320=DIRECTION('ref_axis',(-1.,0.,0.));
#321=DIRECTION($,(0.,0.,1.));
#322=DIRECTION('center_axis',(0.,0.,1.));
#323=DIRECTION('ref_axis',(-1.,0.,0.));
#324=DIRECTION('center_axis',(-3.89551938464967E-017,1.,0.));
#325=DIRECTION('ref_axis',(0.,0.,1.));
#326=DIRECTION($,(1.,3.89551938464967E-017,0.));
#327=DIRECTION($,(0.,0.,1.));
#328=DIRECTION($,(1.,3.89551938464967E-017,0.));
#329=DIRECTION('center_axis',(0.,0.,1.));
#330=DIRECTION('ref_axis',(-1.,0.,0.));
#331=DIRECTION('center_axis',(0.,0.,-1.));
#332=DIRECTION('ref_axis',(-1.,0.,0.));
#333=DIRECTION('center_axis',(0.,0.,-1.));
#334=DIRECTION('ref_axis',(-1.,0.,0.));
#335=DIRECTION('center_axis',(0.,0.,1.));
#336=DIRECTION('ref_axis',(1.,0.,0.));
#337=DIRECTION('center_axis',(0.,0.,1.));
#338=DIRECTION('ref_axis',(1.,0.,0.));
#339=CARTESIAN_POINT('',(0.,0.,0.));
#340=CARTESIAN_POINT('Origin',(116.06664458487,17.5025799793602,17.5));
#341=CARTESIAN_POINT('',(-14.4974200206398,17.5025799793602,13.));
#342=CARTESIAN_POINT('Origin',(-14.4974200206398,17.5025799793602,17.5));
#343=CARTESIAN_POINT('',(-22.4974200206398,17.5025799793602,22.));
#344=CARTESIAN_POINT('Origin',(-22.4974200206398,17.5025799793602,17.5));
#345=CARTESIAN_POINT('Origin',(116.06664458487,17.5025799793602,62.5));
#346=CARTESIAN_POINT('',(-14.4974200206398,17.5025799793602,58.));
#347=CARTESIAN_POINT('Origin',(-14.4974200206398,17.5025799793602,62.5));
#348=CARTESIAN_POINT('',(-22.4974200206398,17.5025799793602,67.));
#349=CARTESIAN_POINT('Origin',(-22.4974200206398,17.5025799793602,62.5));
#350=CARTESIAN_POINT('Origin',(57.5025799793602,-19.4974200206398,0.));
#351=CARTESIAN_POINT('',(57.5025799793602,-19.4974200206398,80.));
#352=CARTESIAN_POINT('',(57.5025799793602,-22.4974200206398,80.));
#353=CARTESIAN_POINT($,(57.5025799793602,-0.997420020639897,80.));
#354=CARTESIAN_POINT('',(57.5025799793602,-22.4974200206398,0.));
#355=CARTESIAN_POINT($,(57.5025799793602,-22.4974200206398,0.));
#356=CARTESIAN_POINT('',(57.5025799793602,-19.4974200206398,0.));
#357=CARTESIAN_POINT($,(57.5025799793602,-0.997420020639897,0.));
#358=CARTESIAN_POINT($,(57.5025799793602,-19.4974200206398,0.));
#359=CARTESIAN_POINT('Origin',(57.5025799793602,-22.4974200206398,0.));
#360=CARTESIAN_POINT('',(-22.4974200206398,-22.4974200206398,80.));
#361=CARTESIAN_POINT($,(37.5025799793602,-22.4974200206398,80.));
#362=CARTESIAN_POINT('',(-22.4974200206398,-22.4974200206398,0.));
#363=CARTESIAN_POINT($,(-22.4974200206398,-22.4974200206398,0.));
#364=CARTESIAN_POINT($,(37.5025799793602,-22.4974200206398,0.));
#365=CARTESIAN_POINT('Origin',(-22.4974200206398,-22.4974200206398,0.));
#366=CARTESIAN_POINT('',(-22.4974200206398,57.5025799793602,80.));
#367=CARTESIAN_POINT($,(-22.4974200206398,-2.49742002063984,80.));
#368=CARTESIAN_POINT('',(-22.4974200206398,57.5025799793602,0.));
#369=CARTESIAN_POINT($,(-22.4974200206398,57.5025799793602,0.));
#370=CARTESIAN_POINT($,(-22.4974200206398,-2.49742002063984,0.));
#371=CARTESIAN_POINT('Origin',(-22.4974200206398,57.5025799793602,0.));
#372=CARTESIAN_POINT('',(-19.4974200206398,57.5025799793602,80.));
#373=CARTESIAN_POINT($,(-2.4974200206399,57.5025799793602,80.));
#374=CARTESIAN_POINT('',(-19.4974200206398,57.5025799793602,0.));
#375=CARTESIAN_POINT($,(-19.4974200206398,57.5025799793602,0.));
#376=CARTESIAN_POINT($,(-2.4974200206399,57.5025799793602,0.));
#377=CARTESIAN_POINT('Origin',(-19.4974200206398,52.5025799793602,0.));
#378=CARTESIAN_POINT('',(-14.4974200206398,52.5025799793602,80.));
#379=CARTESIAN_POINT('Origin',(-19.4974200206398,52.5025799793602,80.));
#380=CARTESIAN_POINT('',(-14.4974200206398,52.5025799793602,0.));
#381=CARTESIAN_POINT($,(-14.4974200206398,52.5025799793602,0.));
#382=CARTESIAN_POINT('Origin',(-19.4974200206398,52.5025799793602,0.));
#383=CARTESIAN_POINT('Origin',(-14.4974200206398,52.5025799793602,0.));
#384=CARTESIAN_POINT('',(-14.4974200206398,-4.49742002063984,80.));
#385=CARTESIAN_POINT($,(-14.4974200206398,35.0025799793602,80.));
#386=CARTESIAN_POINT('',(-14.4974200206398,-4.49742002063984,0.));
#387=CARTESIAN_POINT($,(-14.4974200206398,-4.49742002063984,0.));
#388=CARTESIAN_POINT($,(-14.4974200206398,35.0025799793602,0.));
#389=CARTESIAN_POINT('Origin',(-4.49742002063984,-4.49742002063984,0.));
#390=CARTESIAN_POINT('',(-4.49742002063984,-14.4974200206398,80.));
#391=CARTESIAN_POINT('Origin',(-4.49742002063984,-4.49742002063984,80.));
#392=CARTESIAN_POINT('',(-4.49742002063984,-14.4974200206398,0.));
#393=CARTESIAN_POINT($,(-4.49742002063984,-14.4974200206398,0.));
#394=CARTESIAN_POINT('Origin',(-4.49742002063984,-4.49742002063984,0.));
#395=CARTESIAN_POINT('Origin',(-4.49742002063984,-14.4974200206398,0.));
#396=CARTESIAN_POINT('',(52.5025799793602,-14.4974200206398,80.));
#397=CARTESIAN_POINT($,(6.50257997936016,-14.4974200206398,80.));
#398=CARTESIAN_POINT('',(52.5025799793602,-14.4974200206398,0.));
#399=CARTESIAN_POINT($,(52.5025799793602,-14.4974200206398,0.));
#400=CARTESIAN_POINT($,(6.50257997936016,-14.4974200206398,0.));
#401=CARTESIAN_POINT('Origin',(52.5025799793602,-19.4974200206398,0.));
#402=CARTESIAN_POINT('Origin',(52.5025799793602,-19.4974200206398,80.));
#403=CARTESIAN_POINT('Origin',(52.5025799793602,-19.4974200206398,0.));
#404=CARTESIAN_POINT('Origin',(17.5025799793602,17.5025799793602,0.));
#405=CARTESIAN_POINT('Origin',(17.5025799793602,17.5025799793602,80.));
#406=UNCERTAINTY_MEASURE_WITH_UNIT(LENGTH_MEASURE(0.01),#408,
'DISTANCE_ACCURACY_VALUE',
'Maximum model space distance between geometric entities at asserted c
onnectivities');
#407=(
GEOMETRIC_REPRESENTATION_CONTEXT(3)
GLOBAL_UNCERTAINTY_ASSIGNED_CONTEXT((#406))
GLOBAL_UNIT_ASSIGNED_CONTEXT((#408,#411,#409))
REPRESENTATION_CONTEXT('','3D')
);
#408=(
LENGTH_UNIT()
NAMED_UNIT(*)
SI_UNIT(.MILLI.,.METRE.)
);
#409=(
NAMED_UNIT(*)
SI_UNIT($,.STERADIAN.)
SOLID_ANGLE_UNIT()
);
#410=DIMENSIONAL_EXPONENTS(0.,0.,0.,0.,0.,0.,0.);
#411=(
CONVERSION_BASED_UNIT('degree',#413)
NAMED_UNIT(#410)
PLANE_ANGLE_UNIT()
);
#412=(
NAMED_UNIT(*)
PLANE_ANGLE_UNIT()
SI_UNIT($,.RADIAN.)
);
#413=PLANE_ANGLE_MEASURE_WITH_UNIT(PLANE_ANGLE_MEASURE(0.01745329252),#412);
#414=SHAPE_DEFINITION_REPRESENTATION(#415,#416);
#415=PRODUCT_DEFINITION_SHAPE('',$,#418);
#416=SHAPE_REPRESENTATION('',(#246),#407);
#417=DESIGN_CONTEXT('3D Mechanical Parts',#421,'design');
#418=PRODUCT_DEFINITION(
'13217_KriTec_Anschwei\X\DFwinkel_10_80x80x8_L=80_Stahl',
'13217_KriTec_Anschwei\X\DFwinkel_10_80x80x8_L=80_Stahl',#419,#417);
#419=PRODUCT_DEFINITION_FORMATION('',$,#423);
#420=APPLICATION_PROTOCOL_DEFINITION('international standard',
'ap203_configuration_controlled_3d_design_of_mechanical_parts_and_asse
mblies_mim_lf',2004,#421);
#421=APPLICATION_CONTEXT(
'Configuration Controlled 3D Design of Mechanical Parts and Assemblies');
#422=MECHANICAL_CONTEXT('3D Mechanical Parts',#421,'mechanical');
#423=PRODUCT('13217_KriTec_Anschwei\X\DFwinkel_10_80x80x8_L=80_Stahl',
'13217_KriTec_Anschwei\X\DFwinkel_10_80x80x8_L=80_Stahl',$,(#422));
#424=PRESENTATION_STYLE_ASSIGNMENT((#425));
#425=SURFACE_STYLE_USAGE(.BOTH.,#426);
#426=SURFACE_SIDE_STYLE($,(#427));
#427=SURFACE_STYLE_FILL_AREA(#428);
#428=FILL_AREA_STYLE($,(#429));
#429=FILL_AREA_STYLE_COLOUR($,#430);
#430=COLOUR_RGB('',0.831372549019608,0.831372549019608,0.831372549019608);
ENDSEC;
END-ISO-10303-21;
