ISO-10303-21;
HEADER;
/* Generated by software containing ST-Developer
 * from STEP Tools, Inc. (www.steptools.com) 
 */

FILE_DESCRIPTION(
/* description */ (''),
/* implementation_level */ '2;1');

FILE_NAME(
/* name */ 
'S:\\Bilder_neu\\13215_KriTec_Anschwei\X\DFwinkel_10_45x45x5_L=45_Stah
l\\Inventordateien\\13215_KriTec_Anschweisswinkel_10_45x45x5_L=45_Stah
l.stp',
/* time_stamp */ '2015-03-04T12:27:53+01:00',
/* author */ ('kostic'),
/* organization */ (''),
/* preprocessor_version */ 'ST-DEVELOPER v15.2',
/* originating_system */ 'Autodesk Inventor 2014',
/* authorisation */ '');

FILE_SCHEMA (('CONFIG_CONTROL_DESIGN'));
ENDSEC;

DATA;
#10=SHAPE_REPRESENTATION_RELATIONSHIP('SRR','None',#382,#11);
#11=ADVANCED_BREP_SHAPE_REPRESENTATION($,(#225),#373);
#12=STYLED_ITEM($,(#390),#225);
#13=LINE($,#319,#34);
#14=LINE($,#321,#35);
#15=LINE($,#323,#36);
#16=LINE($,#324,#37);
#17=LINE($,#327,#38);
#18=LINE($,#329,#39);
#19=LINE($,#330,#40);
#20=LINE($,#333,#41);
#21=LINE($,#335,#42);
#22=LINE($,#336,#43);
#23=LINE($,#339,#44);
#24=LINE($,#341,#45);
#25=LINE($,#342,#46);
#26=LINE($,#347,#47);
#27=LINE($,#351,#48);
#28=LINE($,#353,#49);
#29=LINE($,#354,#50);
#30=LINE($,#359,#51);
#31=LINE($,#363,#52);
#32=LINE($,#365,#53);
#33=LINE($,#366,#54);
#34=VECTOR($,#257,0.999999999999999);
#35=VECTOR($,#258,45.);
#36=VECTOR($,#259,0.999999999999999);
#37=VECTOR($,#260,45.);
#38=VECTOR($,#263,45.);
#39=VECTOR($,#264,45.);
#40=VECTOR($,#265,45.);
#41=VECTOR($,#268,45.);
#42=VECTOR($,#269,45.);
#43=VECTOR($,#270,45.);
#44=VECTOR($,#273,1.);
#45=VECTOR($,#274,45.);
#46=VECTOR($,#275,1.);
#47=VECTOR($,#280,45.);
#48=VECTOR($,#285,30.);
#49=VECTOR($,#286,45.);
#50=VECTOR($,#287,30.);
#51=VECTOR($,#292,45.);
#52=VECTOR($,#297,30.);
#53=VECTOR($,#298,45.);
#54=VECTOR($,#299,30.);
#55=PLANE($,#230);
#56=PLANE($,#231);
#57=PLANE($,#232);
#58=PLANE($,#233);
#59=PLANE($,#237);
#60=PLANE($,#241);
#61=PLANE($,#245);
#62=PLANE($,#246);
#63=FACE_BOUND($,#79,.T.);
#64=FACE_BOUND($,#82,.T.);
#65=FACE_BOUND($,#83,.T.);
#66=FACE_BOUND($,#86,.T.);
#67=FACE_BOUND($,#87,.T.);
#68=FACE_OUTER_BOUND($,#78,.T.);
#69=FACE_OUTER_BOUND($,#80,.T.);
#70=FACE_OUTER_BOUND($,#81,.T.);
#71=FACE_OUTER_BOUND($,#84,.T.);
#72=FACE_OUTER_BOUND($,#85,.T.);
#73=FACE_OUTER_BOUND($,#88,.T.);
#74=FACE_OUTER_BOUND($,#89,.T.);
#75=FACE_OUTER_BOUND($,#90,.T.);
#76=FACE_OUTER_BOUND($,#91,.T.);
#77=FACE_OUTER_BOUND($,#92,.T.);
#78=EDGE_LOOP($,(#150));
#79=EDGE_LOOP($,(#151));
#80=EDGE_LOOP($,(#152,#153,#154,#155));
#81=EDGE_LOOP($,(#156,#157,#158,#159));
#82=EDGE_LOOP($,(#160));
#83=EDGE_LOOP($,(#161,#162,#163,#164));
#84=EDGE_LOOP($,(#165,#166,#167,#168));
#85=EDGE_LOOP($,(#169,#170,#171,#172));
#86=EDGE_LOOP($,(#173));
#87=EDGE_LOOP($,(#174,#175,#176,#177));
#88=EDGE_LOOP($,(#178,#179,#180,#181));
#89=EDGE_LOOP($,(#182,#183,#184,#185));
#90=EDGE_LOOP($,(#186,#187,#188,#189));
#91=EDGE_LOOP($,(#190,#191,#192,#193,#194,#195,#196,#197,#198));
#92=EDGE_LOOP($,(#199,#200,#201,#202,#203,#204,#205,#206,#207));
#93=CIRCLE($,#228,4.5);
#94=CIRCLE($,#229,4.5);
#95=CIRCLE($,#235,3.5);
#96=CIRCLE($,#236,3.5);
#97=CIRCLE($,#239,7.);
#98=CIRCLE($,#240,7.);
#99=CIRCLE($,#243,3.5);
#100=CIRCLE($,#244,3.5);
#101=VERTEX_POINT($,#312);
#102=VERTEX_POINT($,#314);
#103=VERTEX_POINT($,#317);
#104=VERTEX_POINT($,#318);
#105=VERTEX_POINT($,#320);
#106=VERTEX_POINT($,#322);
#107=VERTEX_POINT($,#326);
#108=VERTEX_POINT($,#328);
#109=VERTEX_POINT($,#332);
#110=VERTEX_POINT($,#334);
#111=VERTEX_POINT($,#338);
#112=VERTEX_POINT($,#340);
#113=VERTEX_POINT($,#344);
#114=VERTEX_POINT($,#346);
#115=VERTEX_POINT($,#350);
#116=VERTEX_POINT($,#352);
#117=VERTEX_POINT($,#356);
#118=VERTEX_POINT($,#358);
#119=VERTEX_POINT($,#362);
#120=VERTEX_POINT($,#364);
#121=EDGE_CURVE($,#101,#101,#93,.T.);
#122=EDGE_CURVE($,#102,#102,#94,.T.);
#123=EDGE_CURVE($,#103,#104,#13,.T.);
#124=EDGE_CURVE($,#105,#104,#14,.T.);
#125=EDGE_CURVE($,#106,#105,#15,.T.);
#126=EDGE_CURVE($,#106,#103,#16,.T.);
#127=EDGE_CURVE($,#104,#107,#17,.T.);
#128=EDGE_CURVE($,#108,#107,#18,.T.);
#129=EDGE_CURVE($,#105,#108,#19,.T.);
#130=EDGE_CURVE($,#107,#109,#20,.T.);
#131=EDGE_CURVE($,#110,#109,#21,.T.);
#132=EDGE_CURVE($,#108,#110,#22,.T.);
#133=EDGE_CURVE($,#109,#111,#23,.T.);
#134=EDGE_CURVE($,#112,#111,#24,.T.);
#135=EDGE_CURVE($,#110,#112,#25,.T.);
#136=EDGE_CURVE($,#111,#113,#95,.T.);
#137=EDGE_CURVE($,#114,#113,#26,.T.);
#138=EDGE_CURVE($,#112,#114,#96,.T.);
#139=EDGE_CURVE($,#113,#115,#27,.T.);
#140=EDGE_CURVE($,#116,#115,#28,.T.);
#141=EDGE_CURVE($,#114,#116,#29,.T.);
#142=EDGE_CURVE($,#115,#117,#97,.T.);
#143=EDGE_CURVE($,#118,#117,#30,.T.);
#144=EDGE_CURVE($,#116,#118,#98,.T.);
#145=EDGE_CURVE($,#117,#119,#31,.T.);
#146=EDGE_CURVE($,#120,#119,#32,.T.);
#147=EDGE_CURVE($,#118,#120,#33,.T.);
#148=EDGE_CURVE($,#119,#103,#99,.T.);
#149=EDGE_CURVE($,#120,#106,#100,.T.);
#150=ORIENTED_EDGE($,*,*,#121,.F.);
#151=ORIENTED_EDGE($,*,*,#122,.F.);
#152=ORIENTED_EDGE($,*,*,#123,.T.);
#153=ORIENTED_EDGE($,*,*,#124,.F.);
#154=ORIENTED_EDGE($,*,*,#125,.F.);
#155=ORIENTED_EDGE($,*,*,#126,.T.);
#156=ORIENTED_EDGE($,*,*,#127,.T.);
#157=ORIENTED_EDGE($,*,*,#128,.F.);
#158=ORIENTED_EDGE($,*,*,#129,.F.);
#159=ORIENTED_EDGE($,*,*,#124,.T.);
#160=ORIENTED_EDGE($,*,*,#122,.T.);
#161=ORIENTED_EDGE($,*,*,#130,.T.);
#162=ORIENTED_EDGE($,*,*,#131,.F.);
#163=ORIENTED_EDGE($,*,*,#132,.F.);
#164=ORIENTED_EDGE($,*,*,#128,.T.);
#165=ORIENTED_EDGE($,*,*,#133,.T.);
#166=ORIENTED_EDGE($,*,*,#134,.F.);
#167=ORIENTED_EDGE($,*,*,#135,.F.);
#168=ORIENTED_EDGE($,*,*,#131,.T.);
#169=ORIENTED_EDGE($,*,*,#136,.T.);
#170=ORIENTED_EDGE($,*,*,#137,.F.);
#171=ORIENTED_EDGE($,*,*,#138,.F.);
#172=ORIENTED_EDGE($,*,*,#134,.T.);
#173=ORIENTED_EDGE($,*,*,#121,.T.);
#174=ORIENTED_EDGE($,*,*,#139,.T.);
#175=ORIENTED_EDGE($,*,*,#140,.F.);
#176=ORIENTED_EDGE($,*,*,#141,.F.);
#177=ORIENTED_EDGE($,*,*,#137,.T.);
#178=ORIENTED_EDGE($,*,*,#142,.T.);
#179=ORIENTED_EDGE($,*,*,#143,.F.);
#180=ORIENTED_EDGE($,*,*,#144,.F.);
#181=ORIENTED_EDGE($,*,*,#140,.T.);
#182=ORIENTED_EDGE($,*,*,#145,.T.);
#183=ORIENTED_EDGE($,*,*,#146,.F.);
#184=ORIENTED_EDGE($,*,*,#147,.F.);
#185=ORIENTED_EDGE($,*,*,#143,.T.);
#186=ORIENTED_EDGE($,*,*,#148,.T.);
#187=ORIENTED_EDGE($,*,*,#126,.F.);
#188=ORIENTED_EDGE($,*,*,#149,.F.);
#189=ORIENTED_EDGE($,*,*,#146,.T.);
#190=ORIENTED_EDGE($,*,*,#138,.T.);
#191=ORIENTED_EDGE($,*,*,#141,.T.);
#192=ORIENTED_EDGE($,*,*,#144,.T.);
#193=ORIENTED_EDGE($,*,*,#147,.T.);
#194=ORIENTED_EDGE($,*,*,#149,.T.);
#195=ORIENTED_EDGE($,*,*,#125,.T.);
#196=ORIENTED_EDGE($,*,*,#129,.T.);
#197=ORIENTED_EDGE($,*,*,#132,.T.);
#198=ORIENTED_EDGE($,*,*,#135,.T.);
#199=ORIENTED_EDGE($,*,*,#136,.F.);
#200=ORIENTED_EDGE($,*,*,#133,.F.);
#201=ORIENTED_EDGE($,*,*,#130,.F.);
#202=ORIENTED_EDGE($,*,*,#127,.F.);
#203=ORIENTED_EDGE($,*,*,#123,.F.);
#204=ORIENTED_EDGE($,*,*,#148,.F.);
#205=ORIENTED_EDGE($,*,*,#145,.F.);
#206=ORIENTED_EDGE($,*,*,#142,.F.);
#207=ORIENTED_EDGE($,*,*,#139,.F.);
#208=CYLINDRICAL_SURFACE($,#227,4.5);
#209=CYLINDRICAL_SURFACE($,#234,3.5);
#210=CYLINDRICAL_SURFACE($,#238,7.);
#211=CYLINDRICAL_SURFACE($,#242,3.5);
#212=ADVANCED_FACE($,(#68,#63),#208,.F.);
#213=ADVANCED_FACE($,(#69),#55,.T.);
#214=ADVANCED_FACE($,(#70),#56,.T.);
#215=ADVANCED_FACE($,(#64,#65),#57,.T.);
#216=ADVANCED_FACE($,(#71),#58,.T.);
#217=ADVANCED_FACE($,(#72),#209,.T.);
#218=ADVANCED_FACE($,(#66,#67),#59,.T.);
#219=ADVANCED_FACE($,(#73),#210,.F.);
#220=ADVANCED_FACE($,(#74),#60,.T.);
#221=ADVANCED_FACE($,(#75),#211,.T.);
#222=ADVANCED_FACE($,(#76),#61,.F.);
#223=ADVANCED_FACE($,(#77),#62,.T.);
#224=CLOSED_SHELL($,(#212,#213,#214,#215,#216,#217,#218,#219,#220,#221,
#222,#223));
#225=MANIFOLD_SOLID_BREP('Solid1',#224);
#226=AXIS2_PLACEMENT_3D('placement',#310,#247,#248);
#227=AXIS2_PLACEMENT_3D($,#311,#249,#250);
#228=AXIS2_PLACEMENT_3D($,#313,#251,#252);
#229=AXIS2_PLACEMENT_3D($,#315,#253,#254);
#230=AXIS2_PLACEMENT_3D($,#316,#255,#256);
#231=AXIS2_PLACEMENT_3D($,#325,#261,#262);
#232=AXIS2_PLACEMENT_3D($,#331,#266,#267);
#233=AXIS2_PLACEMENT_3D($,#337,#271,#272);
#234=AXIS2_PLACEMENT_3D($,#343,#276,#277);
#235=AXIS2_PLACEMENT_3D($,#345,#278,#279);
#236=AXIS2_PLACEMENT_3D($,#348,#281,#282);
#237=AXIS2_PLACEMENT_3D($,#349,#283,#284);
#238=AXIS2_PLACEMENT_3D($,#355,#288,#289);
#239=AXIS2_PLACEMENT_3D($,#357,#290,#291);
#240=AXIS2_PLACEMENT_3D($,#360,#293,#294);
#241=AXIS2_PLACEMENT_3D($,#361,#295,#296);
#242=AXIS2_PLACEMENT_3D($,#367,#300,#301);
#243=AXIS2_PLACEMENT_3D($,#368,#302,#303);
#244=AXIS2_PLACEMENT_3D($,#369,#304,#305);
#245=AXIS2_PLACEMENT_3D($,#370,#306,#307);
#246=AXIS2_PLACEMENT_3D($,#371,#308,#309);
#247=DIRECTION('axis',(0.,0.,1.));
#248=DIRECTION('refdir',(1.,0.,0.));
#249=DIRECTION('center_axis',(-1.,4.93432455388959E-017,0.));
#250=DIRECTION('ref_axis',(0.,0.,1.));
#251=DIRECTION('center_axis',(-1.,3.70074341541719E-017,0.));
#252=DIRECTION('ref_axis',(0.,0.,1.));
#253=DIRECTION('center_axis',(1.,-4.93432455388959E-017,0.));
#254=DIRECTION('ref_axis',(0.,0.,1.));
#255=DIRECTION('center_axis',(1.,-4.44089209850063E-015,0.));
#256=DIRECTION('ref_axis',(0.,0.,-1.));
#257=DIRECTION($,(-4.44089209850063E-015,-1.,0.));
#258=DIRECTION($,(0.,0.,1.));
#259=DIRECTION($,(-4.44089209850063E-015,-1.,0.));
#260=DIRECTION($,(0.,0.,1.));
#261=DIRECTION('center_axis',(0.,-1.,0.));
#262=DIRECTION('ref_axis',(0.,0.,-1.));
#263=DIRECTION($,(-1.,0.,0.));
#264=DIRECTION($,(0.,0.,1.));
#265=DIRECTION($,(-1.,0.,0.));
#266=DIRECTION('center_axis',(-1.,4.93432455388959E-017,0.));
#267=DIRECTION('ref_axis',(0.,0.,1.));
#268=DIRECTION($,(4.93432455388959E-017,1.,0.));
#269=DIRECTION($,(0.,0.,1.));
#270=DIRECTION($,(4.93432455388959E-017,1.,0.));
#271=DIRECTION('center_axis',(-4.44089209850062E-015,1.,0.));
#272=DIRECTION('ref_axis',(0.,0.,1.));
#273=DIRECTION($,(1.,4.44089209850062E-015,0.));
#274=DIRECTION($,(0.,0.,1.));
#275=DIRECTION($,(1.,4.44089209850062E-015,0.));
#276=DIRECTION('center_axis',(0.,0.,1.));
#277=DIRECTION('ref_axis',(-1.,-1.26882631385732E-015,0.));
#278=DIRECTION('center_axis',(0.,0.,-1.));
#279=DIRECTION('ref_axis',(-1.,-1.26882631385732E-015,0.));
#280=DIRECTION($,(0.,0.,1.));
#281=DIRECTION('center_axis',(0.,0.,-1.));
#282=DIRECTION('ref_axis',(-1.,-1.26882631385732E-015,0.));
#283=DIRECTION('center_axis',(1.,-3.70074341541719E-017,0.));
#284=DIRECTION('ref_axis',(0.,0.,-1.));
#285=DIRECTION($,(-3.70074341541719E-017,-1.,0.));
#286=DIRECTION($,(0.,0.,1.));
#287=DIRECTION($,(-3.70074341541719E-017,-1.,0.));
#288=DIRECTION('center_axis',(0.,0.,1.));
#289=DIRECTION('ref_axis',(-1.,0.,0.));
#290=DIRECTION('center_axis',(0.,0.,1.));
#291=DIRECTION('ref_axis',(-1.,0.,0.));
#292=DIRECTION($,(0.,0.,1.));
#293=DIRECTION('center_axis',(0.,0.,1.));
#294=DIRECTION('ref_axis',(-1.,0.,0.));
#295=DIRECTION('center_axis',(0.,1.,0.));
#296=DIRECTION('ref_axis',(0.,0.,1.));
#297=DIRECTION($,(1.,0.,0.));
#298=DIRECTION($,(0.,0.,1.));
#299=DIRECTION($,(1.,0.,0.));
#300=DIRECTION('center_axis',(0.,0.,1.));
#301=DIRECTION('ref_axis',(-1.,0.,0.));
#302=DIRECTION('center_axis',(0.,0.,-1.));
#303=DIRECTION('ref_axis',(-1.,0.,0.));
#304=DIRECTION('center_axis',(0.,0.,-1.));
#305=DIRECTION('ref_axis',(-1.,0.,0.));
#306=DIRECTION('center_axis',(0.,0.,1.));
#307=DIRECTION('ref_axis',(1.,0.,0.));
#308=DIRECTION('center_axis',(0.,0.,1.));
#309=DIRECTION('ref_axis',(1.,0.,0.));
#310=CARTESIAN_POINT('',(0.,0.,0.));
#311=CARTESIAN_POINT('Origin',(65.2874875789896,9.84520123839009,22.5));
#312=CARTESIAN_POINT('',(-8.15479876160991,9.84520123839009,18.));
#313=CARTESIAN_POINT('Origin',(-8.15479876160991,9.84520123839009,22.5));
#314=CARTESIAN_POINT('',(-12.6547987616099,9.84520123839009,27.));
#315=CARTESIAN_POINT('Origin',(-12.6547987616099,9.84520123839009,22.5));
#316=CARTESIAN_POINT('Origin',(32.3452012383901,-11.6547987616099,0.));
#317=CARTESIAN_POINT('',(32.3452012383901,-11.6547987616099,45.));
#318=CARTESIAN_POINT('',(32.3452012383901,-12.6547987616099,45.));
#319=CARTESIAN_POINT($,(32.3452012383901,-0.904798761609958,45.));
#320=CARTESIAN_POINT('',(32.3452012383901,-12.6547987616099,0.));
#321=CARTESIAN_POINT($,(32.3452012383901,-12.6547987616099,0.));
#322=CARTESIAN_POINT('',(32.3452012383901,-11.6547987616099,0.));
#323=CARTESIAN_POINT($,(32.3452012383901,-0.904798761609958,0.));
#324=CARTESIAN_POINT($,(32.3452012383901,-11.6547987616099,0.));
#325=CARTESIAN_POINT('Origin',(32.3452012383901,-12.6547987616099,0.));
#326=CARTESIAN_POINT('',(-12.6547987616099,-12.6547987616099,45.));
#327=CARTESIAN_POINT($,(21.0952012383901,-12.6547987616099,45.));
#328=CARTESIAN_POINT('',(-12.6547987616099,-12.6547987616099,0.));
#329=CARTESIAN_POINT($,(-12.6547987616099,-12.6547987616099,0.));
#330=CARTESIAN_POINT($,(21.0952012383901,-12.6547987616099,0.));
#331=CARTESIAN_POINT('Origin',(-12.6547987616099,-12.6547987616099,0.));
#332=CARTESIAN_POINT('',(-12.6547987616099,32.3452012383901,45.));
#333=CARTESIAN_POINT($,(-12.6547987616099,-1.40479876160991,45.));
#334=CARTESIAN_POINT('',(-12.6547987616099,32.3452012383901,0.));
#335=CARTESIAN_POINT($,(-12.6547987616099,32.3452012383901,0.));
#336=CARTESIAN_POINT($,(-12.6547987616099,-1.40479876160991,0.));
#337=CARTESIAN_POINT('Origin',(-12.6547987616099,32.3452012383901,0.));
#338=CARTESIAN_POINT('',(-11.6547987616099,32.3452012383901,45.));
#339=CARTESIAN_POINT($,(-1.40479876160996,32.3452012383901,45.));
#340=CARTESIAN_POINT('',(-11.6547987616099,32.3452012383901,0.));
#341=CARTESIAN_POINT($,(-11.6547987616099,32.3452012383901,0.));
#342=CARTESIAN_POINT($,(-1.40479876160996,32.3452012383901,0.));
#343=CARTESIAN_POINT('Origin',(-11.6547987616099,28.8452012383901,0.));
#344=CARTESIAN_POINT('',(-8.15479876160991,28.8452012383901,45.));
#345=CARTESIAN_POINT('Origin',(-11.6547987616099,28.8452012383901,45.));
#346=CARTESIAN_POINT('',(-8.15479876160991,28.8452012383901,0.));
#347=CARTESIAN_POINT($,(-8.15479876160991,28.8452012383901,0.));
#348=CARTESIAN_POINT('Origin',(-11.6547987616099,28.8452012383901,0.));
#349=CARTESIAN_POINT('Origin',(-8.15479876160991,28.8452012383901,0.));
#350=CARTESIAN_POINT('',(-8.15479876160991,-1.15479876160991,45.));
#351=CARTESIAN_POINT($,(-8.15479876160991,19.3452012383901,45.));
#352=CARTESIAN_POINT('',(-8.15479876160991,-1.15479876160991,0.));
#353=CARTESIAN_POINT($,(-8.15479876160991,-1.15479876160991,0.));
#354=CARTESIAN_POINT($,(-8.15479876160991,19.3452012383901,0.));
#355=CARTESIAN_POINT('Origin',(-1.15479876160991,-1.15479876160991,0.));
#356=CARTESIAN_POINT('',(-1.15479876160991,-8.15479876160991,45.));
#357=CARTESIAN_POINT('Origin',(-1.15479876160991,-1.15479876160991,45.));
#358=CARTESIAN_POINT('',(-1.15479876160991,-8.15479876160991,0.));
#359=CARTESIAN_POINT($,(-1.15479876160991,-8.15479876160991,0.));
#360=CARTESIAN_POINT('Origin',(-1.15479876160991,-1.15479876160991,0.));
#361=CARTESIAN_POINT('Origin',(-1.15479876160991,-8.15479876160991,0.));
#362=CARTESIAN_POINT('',(28.8452012383901,-8.15479876160991,45.));
#363=CARTESIAN_POINT($,(4.34520123839009,-8.15479876160991,45.));
#364=CARTESIAN_POINT('',(28.8452012383901,-8.15479876160991,0.));
#365=CARTESIAN_POINT($,(28.8452012383901,-8.15479876160991,0.));
#366=CARTESIAN_POINT($,(4.34520123839009,-8.15479876160991,0.));
#367=CARTESIAN_POINT('Origin',(28.8452012383901,-11.6547987616099,0.));
#368=CARTESIAN_POINT('Origin',(28.8452012383901,-11.6547987616099,45.));
#369=CARTESIAN_POINT('Origin',(28.8452012383901,-11.6547987616099,0.));
#370=CARTESIAN_POINT('Origin',(9.84520123839009,9.84520123839009,0.));
#371=CARTESIAN_POINT('Origin',(9.84520123839009,9.84520123839009,45.));
#372=UNCERTAINTY_MEASURE_WITH_UNIT(LENGTH_MEASURE(0.01),#374,
'DISTANCE_ACCURACY_VALUE',
'Maximum model space distance between geometric entities at asserted c
onnectivities');
#373=(
GEOMETRIC_REPRESENTATION_CONTEXT(3)
GLOBAL_UNCERTAINTY_ASSIGNED_CONTEXT((#372))
GLOBAL_UNIT_ASSIGNED_CONTEXT((#374,#377,#375))
REPRESENTATION_CONTEXT('','3D')
);
#374=(
LENGTH_UNIT()
NAMED_UNIT(*)
SI_UNIT(.MILLI.,.METRE.)
);
#375=(
NAMED_UNIT(*)
SI_UNIT($,.STERADIAN.)
SOLID_ANGLE_UNIT()
);
#376=DIMENSIONAL_EXPONENTS(0.,0.,0.,0.,0.,0.,0.);
#377=(
CONVERSION_BASED_UNIT('degree',#379)
NAMED_UNIT(#376)
PLANE_ANGLE_UNIT()
);
#378=(
NAMED_UNIT(*)
PLANE_ANGLE_UNIT()
SI_UNIT($,.RADIAN.)
);
#379=PLANE_ANGLE_MEASURE_WITH_UNIT(PLANE_ANGLE_MEASURE(0.01745329252),#378);
#380=SHAPE_DEFINITION_REPRESENTATION(#381,#382);
#381=PRODUCT_DEFINITION_SHAPE('',$,#384);
#382=SHAPE_REPRESENTATION('',(#226),#373);
#383=DESIGN_CONTEXT('3D Mechanical Parts',#387,'design');
#384=PRODUCT_DEFINITION(
'13215_KriTec_Anschwei\X\DFwinkel_10_45x45x5_L=45_Stahl',
'13215_KriTec_Anschwei\X\DFwinkel_10_45x45x5_L=45_Stahl',#385,#383);
#385=PRODUCT_DEFINITION_FORMATION('',$,#389);
#386=APPLICATION_PROTOCOL_DEFINITION('international standard',
'ap203_configuration_controlled_3d_design_of_mechanical_parts_and_asse
mblies_mim_lf',2004,#387);
#387=APPLICATION_CONTEXT(
'Configuration Controlled 3D Design of Mechanical Parts and Assemblies');
#388=MECHANICAL_CONTEXT('3D Mechanical Parts',#387,'mechanical');
#389=PRODUCT('13215_KriTec_Anschwei\X\DFwinkel_10_45x45x5_L=45_Stahl',
'13215_KriTec_Anschwei\X\DFwinkel_10_45x45x5_L=45_Stahl',$,(#388));
#390=PRESENTATION_STYLE_ASSIGNMENT((#391));
#391=SURFACE_STYLE_USAGE(.BOTH.,#392);
#392=SURFACE_SIDE_STYLE($,(#393));
#393=SURFACE_STYLE_FILL_AREA(#394);
#394=FILL_AREA_STYLE($,(#395));
#395=FILL_AREA_STYLE_COLOUR($,#396);
#396=COLOUR_RGB('',0.831372549019608,0.831372549019608,0.831372549019608);
ENDSEC;
END-ISO-10303-21;
