ISO-10303-21;
HEADER;
/* Generated by software containing ST-Developer
 * from STEP Tools, Inc. (www.steptools.com) 
 */

FILE_DESCRIPTION(
/* description */ (''),
/* implementation_level */ '2;1');

FILE_NAME(
/* name */ 
'S:\\Bilder_neu\\13198_KriTec_Rasterplatte_fuer_Miniraster\\Inventorda
teien\\13198_KriTec_Rasterplatte_fuer_Miniraster.stp',
/* time_stamp */ '2015-04-10T18:07:48+02:00',
/* author */ ('kostic'),
/* organization */ (''),
/* preprocessor_version */ 'ST-DEVELOPER v15.2',
/* originating_system */ 'Autodesk Inventor 2014',
/* authorisation */ '');

FILE_SCHEMA (('CONFIG_CONTROL_DESIGN'));
ENDSEC;

DATA;
#10=MECHANICAL_DESIGN_GEOMETRIC_PRESENTATION_REPRESENTATION('',(#13),#591);
#11=SHAPE_REPRESENTATION_RELATIONSHIP('SRR','None',#600,#12);
#12=ADVANCED_BREP_SHAPE_REPRESENTATION($,(#351),#590);
#13=STYLED_ITEM('',(#609),#351);
#14=FACE_BOUND('',#48,.T.);
#15=FACE_BOUND('',#49,.T.);
#16=FACE_BOUND('',#50,.T.);
#17=FACE_BOUND('',#54,.T.);
#18=FACE_BOUND('',#55,.T.);
#19=PLANE('',#356);
#20=PLANE('',#357);
#21=PLANE('',#367);
#22=PLANE('',#368);
#23=PLANE('',#376);
#24=PLANE('',#378);
#25=PLANE('',#380);
#26=PLANE('',#382);
#27=PLANE('',#384);
#28=PLANE('',#386);
#29=FACE_OUTER_BOUND('',#46,.T.);
#30=FACE_OUTER_BOUND('',#47,.T.);
#31=FACE_OUTER_BOUND('',#51,.T.);
#32=FACE_OUTER_BOUND('',#52,.T.);
#33=FACE_OUTER_BOUND('',#53,.T.);
#34=FACE_OUTER_BOUND('',#56,.T.);
#35=FACE_OUTER_BOUND('',#57,.T.);
#36=FACE_OUTER_BOUND('',#58,.T.);
#37=FACE_OUTER_BOUND('',#59,.T.);
#38=FACE_OUTER_BOUND('',#60,.T.);
#39=FACE_OUTER_BOUND('',#61,.T.);
#40=FACE_OUTER_BOUND('',#62,.T.);
#41=FACE_OUTER_BOUND('',#63,.T.);
#42=FACE_OUTER_BOUND('',#64,.T.);
#43=FACE_OUTER_BOUND('',#65,.T.);
#44=FACE_OUTER_BOUND('',#66,.T.);
#45=FACE_OUTER_BOUND('',#67,.T.);
#46=EDGE_LOOP('',(#228,#229,#230,#231));
#47=EDGE_LOOP('',(#232,#233,#234,#235));
#48=EDGE_LOOP('',(#236,#237,#238,#239));
#49=EDGE_LOOP('',(#240,#241,#242,#243));
#50=EDGE_LOOP('',(#244,#245,#246,#247,#248,#249,#250,#251));
#51=EDGE_LOOP('',(#252,#253,#254,#255));
#52=EDGE_LOOP('',(#256,#257,#258,#259));
#53=EDGE_LOOP('',(#260,#261,#262,#263,#264,#265,#266,#267));
#54=EDGE_LOOP('',(#268,#269,#270,#271));
#55=EDGE_LOOP('',(#272,#273,#274,#275));
#56=EDGE_LOOP('',(#276,#277,#278,#279));
#57=EDGE_LOOP('',(#280,#281,#282,#283));
#58=EDGE_LOOP('',(#284,#285,#286,#287));
#59=EDGE_LOOP('',(#288,#289,#290,#291));
#60=EDGE_LOOP('',(#292,#293,#294,#295));
#61=EDGE_LOOP('',(#296,#297,#298,#299));
#62=EDGE_LOOP('',(#300,#301,#302,#303));
#63=EDGE_LOOP('',(#304,#305,#306,#307));
#64=EDGE_LOOP('',(#308,#309,#310,#311));
#65=EDGE_LOOP('',(#312,#313,#314,#315));
#66=EDGE_LOOP('',(#316,#317,#318,#319));
#67=EDGE_LOOP('',(#320,#321,#322,#323));
#68=LINE('',#495,#100);
#69=LINE('',#498,#101);
#70=LINE('',#501,#102);
#71=LINE('',#503,#103);
#72=LINE('',#504,#104);
#73=LINE('',#508,#105);
#74=LINE('',#512,#106);
#75=LINE('',#516,#107);
#76=LINE('',#520,#108);
#77=LINE('',#523,#109);
#78=LINE('',#527,#110);
#79=LINE('',#531,#111);
#80=LINE('',#537,#112);
#81=LINE('',#538,#113);
#82=LINE('',#541,#114);
#83=LINE('',#542,#115);
#84=LINE('',#547,#116);
#85=LINE('',#549,#117);
#86=LINE('',#552,#118);
#87=LINE('',#556,#119);
#88=LINE('',#560,#120);
#89=LINE('',#564,#121);
#90=LINE('',#567,#122);
#91=LINE('',#569,#123);
#92=LINE('',#572,#124);
#93=LINE('',#573,#125);
#94=LINE('',#575,#126);
#95=LINE('',#577,#127);
#96=LINE('',#580,#128);
#97=LINE('',#581,#129);
#98=LINE('',#583,#130);
#99=LINE('',#585,#131);
#100=VECTOR('',#393,15.);
#101=VECTOR('',#396,15.);
#102=VECTOR('',#399,17.1368709722348);
#103=VECTOR('',#400,15.);
#104=VECTOR('',#401,17.1368709722348);
#105=VECTOR('',#404,12.);
#106=VECTOR('',#407,12.);
#107=VECTOR('',#410,12.);
#108=VECTOR('',#413,12.);
#109=VECTOR('',#416,34.);
#110=VECTOR('',#419,25.9940130799211);
#111=VECTOR('',#422,35.1347259319857);
#112=VECTOR('',#429,15.);
#113=VECTOR('',#430,15.);
#114=VECTOR('',#433,25.9940130799211);
#115=VECTOR('',#434,15.);
#116=VECTOR('',#439,35.1347259319857);
#117=VECTOR('',#442,34.);
#118=VECTOR('',#443,12.);
#119=VECTOR('',#446,12.);
#120=VECTOR('',#449,12.);
#121=VECTOR('',#452,12.);
#122=VECTOR('',#457,15.);
#123=VECTOR('',#460,15.);
#124=VECTOR('',#465,15.);
#125=VECTOR('',#466,15.);
#126=VECTOR('',#469,15.);
#127=VECTOR('',#472,15.);
#128=VECTOR('',#477,15.);
#129=VECTOR('',#478,15.);
#130=VECTOR('',#481,15.);
#131=VECTOR('',#484,15.);
#132=CIRCLE('',#354,2.);
#133=CIRCLE('',#355,2.);
#134=CIRCLE('',#358,3.3);
#135=CIRCLE('',#359,3.3);
#136=CIRCLE('',#360,3.3);
#137=CIRCLE('',#361,3.3);
#138=CIRCLE('',#362,2.);
#139=CIRCLE('',#363,2.);
#140=CIRCLE('',#364,2.);
#141=CIRCLE('',#366,2.);
#142=CIRCLE('',#369,2.);
#143=CIRCLE('',#370,2.);
#144=CIRCLE('',#371,3.3);
#145=CIRCLE('',#372,3.3);
#146=CIRCLE('',#373,3.3);
#147=CIRCLE('',#374,3.3);
#148=VERTEX_POINT('',#491);
#149=VERTEX_POINT('',#492);
#150=VERTEX_POINT('',#494);
#151=VERTEX_POINT('',#496);
#152=VERTEX_POINT('',#500);
#153=VERTEX_POINT('',#502);
#154=VERTEX_POINT('',#506);
#155=VERTEX_POINT('',#507);
#156=VERTEX_POINT('',#509);
#157=VERTEX_POINT('',#511);
#158=VERTEX_POINT('',#514);
#159=VERTEX_POINT('',#515);
#160=VERTEX_POINT('',#517);
#161=VERTEX_POINT('',#519);
#162=VERTEX_POINT('',#522);
#163=VERTEX_POINT('',#524);
#164=VERTEX_POINT('',#526);
#165=VERTEX_POINT('',#528);
#166=VERTEX_POINT('',#530);
#167=VERTEX_POINT('',#534);
#168=VERTEX_POINT('',#535);
#169=VERTEX_POINT('',#540);
#170=VERTEX_POINT('',#544);
#171=VERTEX_POINT('',#546);
#172=VERTEX_POINT('',#550);
#173=VERTEX_POINT('',#551);
#174=VERTEX_POINT('',#553);
#175=VERTEX_POINT('',#555);
#176=VERTEX_POINT('',#558);
#177=VERTEX_POINT('',#559);
#178=VERTEX_POINT('',#561);
#179=VERTEX_POINT('',#563);
#180=EDGE_CURVE('',#148,#149,#132,.T.);
#181=EDGE_CURVE('',#149,#150,#68,.T.);
#182=EDGE_CURVE('',#150,#151,#133,.T.);
#183=EDGE_CURVE('',#151,#148,#69,.T.);
#184=EDGE_CURVE('',#149,#152,#70,.T.);
#185=EDGE_CURVE('',#153,#152,#71,.T.);
#186=EDGE_CURVE('',#153,#150,#72,.T.);
#187=EDGE_CURVE('',#154,#155,#73,.T.);
#188=EDGE_CURVE('',#155,#156,#134,.T.);
#189=EDGE_CURVE('',#156,#157,#74,.T.);
#190=EDGE_CURVE('',#157,#154,#135,.T.);
#191=EDGE_CURVE('',#158,#159,#75,.T.);
#192=EDGE_CURVE('',#159,#160,#136,.T.);
#193=EDGE_CURVE('',#160,#161,#76,.T.);
#194=EDGE_CURVE('',#161,#158,#137,.T.);
#195=EDGE_CURVE('',#148,#162,#77,.T.);
#196=EDGE_CURVE('',#163,#162,#138,.T.);
#197=EDGE_CURVE('',#164,#163,#78,.T.);
#198=EDGE_CURVE('',#165,#164,#139,.T.);
#199=EDGE_CURVE('',#165,#166,#79,.T.);
#200=EDGE_CURVE('',#152,#166,#140,.T.);
#201=EDGE_CURVE('',#167,#168,#141,.T.);
#202=EDGE_CURVE('',#168,#163,#80,.T.);
#203=EDGE_CURVE('',#162,#167,#81,.T.);
#204=EDGE_CURVE('',#169,#168,#82,.T.);
#205=EDGE_CURVE('',#164,#169,#83,.T.);
#206=EDGE_CURVE('',#170,#153,#142,.T.);
#207=EDGE_CURVE('',#170,#171,#84,.T.);
#208=EDGE_CURVE('',#169,#171,#143,.T.);
#209=EDGE_CURVE('',#167,#151,#85,.T.);
#210=EDGE_CURVE('',#172,#173,#86,.T.);
#211=EDGE_CURVE('',#173,#174,#144,.T.);
#212=EDGE_CURVE('',#174,#175,#87,.T.);
#213=EDGE_CURVE('',#175,#172,#145,.T.);
#214=EDGE_CURVE('',#176,#177,#88,.T.);
#215=EDGE_CURVE('',#177,#178,#146,.T.);
#216=EDGE_CURVE('',#178,#179,#89,.T.);
#217=EDGE_CURVE('',#179,#176,#147,.T.);
#218=EDGE_CURVE('',#166,#170,#90,.T.);
#219=EDGE_CURVE('',#171,#165,#91,.T.);
#220=EDGE_CURVE('',#159,#176,#92,.T.);
#221=EDGE_CURVE('',#158,#177,#93,.T.);
#222=EDGE_CURVE('',#160,#179,#94,.T.);
#223=EDGE_CURVE('',#161,#178,#95,.T.);
#224=EDGE_CURVE('',#155,#172,#96,.T.);
#225=EDGE_CURVE('',#154,#173,#97,.T.);
#226=EDGE_CURVE('',#157,#174,#98,.T.);
#227=EDGE_CURVE('',#156,#175,#99,.T.);
#228=ORIENTED_EDGE('',*,*,#180,.T.);
#229=ORIENTED_EDGE('',*,*,#181,.T.);
#230=ORIENTED_EDGE('',*,*,#182,.T.);
#231=ORIENTED_EDGE('',*,*,#183,.T.);
#232=ORIENTED_EDGE('',*,*,#181,.F.);
#233=ORIENTED_EDGE('',*,*,#184,.T.);
#234=ORIENTED_EDGE('',*,*,#185,.F.);
#235=ORIENTED_EDGE('',*,*,#186,.T.);
#236=ORIENTED_EDGE('',*,*,#187,.T.);
#237=ORIENTED_EDGE('',*,*,#188,.T.);
#238=ORIENTED_EDGE('',*,*,#189,.T.);
#239=ORIENTED_EDGE('',*,*,#190,.T.);
#240=ORIENTED_EDGE('',*,*,#191,.T.);
#241=ORIENTED_EDGE('',*,*,#192,.T.);
#242=ORIENTED_EDGE('',*,*,#193,.T.);
#243=ORIENTED_EDGE('',*,*,#194,.T.);
#244=ORIENTED_EDGE('',*,*,#180,.F.);
#245=ORIENTED_EDGE('',*,*,#195,.T.);
#246=ORIENTED_EDGE('',*,*,#196,.F.);
#247=ORIENTED_EDGE('',*,*,#197,.F.);
#248=ORIENTED_EDGE('',*,*,#198,.F.);
#249=ORIENTED_EDGE('',*,*,#199,.T.);
#250=ORIENTED_EDGE('',*,*,#200,.F.);
#251=ORIENTED_EDGE('',*,*,#184,.F.);
#252=ORIENTED_EDGE('',*,*,#201,.T.);
#253=ORIENTED_EDGE('',*,*,#202,.T.);
#254=ORIENTED_EDGE('',*,*,#196,.T.);
#255=ORIENTED_EDGE('',*,*,#203,.T.);
#256=ORIENTED_EDGE('',*,*,#202,.F.);
#257=ORIENTED_EDGE('',*,*,#204,.F.);
#258=ORIENTED_EDGE('',*,*,#205,.F.);
#259=ORIENTED_EDGE('',*,*,#197,.T.);
#260=ORIENTED_EDGE('',*,*,#182,.F.);
#261=ORIENTED_EDGE('',*,*,#186,.F.);
#262=ORIENTED_EDGE('',*,*,#206,.F.);
#263=ORIENTED_EDGE('',*,*,#207,.T.);
#264=ORIENTED_EDGE('',*,*,#208,.F.);
#265=ORIENTED_EDGE('',*,*,#204,.T.);
#266=ORIENTED_EDGE('',*,*,#201,.F.);
#267=ORIENTED_EDGE('',*,*,#209,.T.);
#268=ORIENTED_EDGE('',*,*,#210,.T.);
#269=ORIENTED_EDGE('',*,*,#211,.T.);
#270=ORIENTED_EDGE('',*,*,#212,.T.);
#271=ORIENTED_EDGE('',*,*,#213,.T.);
#272=ORIENTED_EDGE('',*,*,#214,.T.);
#273=ORIENTED_EDGE('',*,*,#215,.T.);
#274=ORIENTED_EDGE('',*,*,#216,.T.);
#275=ORIENTED_EDGE('',*,*,#217,.T.);
#276=ORIENTED_EDGE('',*,*,#206,.T.);
#277=ORIENTED_EDGE('',*,*,#185,.T.);
#278=ORIENTED_EDGE('',*,*,#200,.T.);
#279=ORIENTED_EDGE('',*,*,#218,.T.);
#280=ORIENTED_EDGE('',*,*,#218,.F.);
#281=ORIENTED_EDGE('',*,*,#199,.F.);
#282=ORIENTED_EDGE('',*,*,#219,.F.);
#283=ORIENTED_EDGE('',*,*,#207,.F.);
#284=ORIENTED_EDGE('',*,*,#198,.T.);
#285=ORIENTED_EDGE('',*,*,#205,.T.);
#286=ORIENTED_EDGE('',*,*,#208,.T.);
#287=ORIENTED_EDGE('',*,*,#219,.T.);
#288=ORIENTED_EDGE('',*,*,#214,.F.);
#289=ORIENTED_EDGE('',*,*,#220,.F.);
#290=ORIENTED_EDGE('',*,*,#191,.F.);
#291=ORIENTED_EDGE('',*,*,#221,.T.);
#292=ORIENTED_EDGE('',*,*,#217,.F.);
#293=ORIENTED_EDGE('',*,*,#222,.F.);
#294=ORIENTED_EDGE('',*,*,#192,.F.);
#295=ORIENTED_EDGE('',*,*,#220,.T.);
#296=ORIENTED_EDGE('',*,*,#216,.F.);
#297=ORIENTED_EDGE('',*,*,#223,.F.);
#298=ORIENTED_EDGE('',*,*,#193,.F.);
#299=ORIENTED_EDGE('',*,*,#222,.T.);
#300=ORIENTED_EDGE('',*,*,#215,.F.);
#301=ORIENTED_EDGE('',*,*,#221,.F.);
#302=ORIENTED_EDGE('',*,*,#194,.F.);
#303=ORIENTED_EDGE('',*,*,#223,.T.);
#304=ORIENTED_EDGE('',*,*,#210,.F.);
#305=ORIENTED_EDGE('',*,*,#224,.F.);
#306=ORIENTED_EDGE('',*,*,#187,.F.);
#307=ORIENTED_EDGE('',*,*,#225,.T.);
#308=ORIENTED_EDGE('',*,*,#211,.F.);
#309=ORIENTED_EDGE('',*,*,#225,.F.);
#310=ORIENTED_EDGE('',*,*,#190,.F.);
#311=ORIENTED_EDGE('',*,*,#226,.T.);
#312=ORIENTED_EDGE('',*,*,#212,.F.);
#313=ORIENTED_EDGE('',*,*,#226,.F.);
#314=ORIENTED_EDGE('',*,*,#189,.F.);
#315=ORIENTED_EDGE('',*,*,#227,.T.);
#316=ORIENTED_EDGE('',*,*,#213,.F.);
#317=ORIENTED_EDGE('',*,*,#227,.F.);
#318=ORIENTED_EDGE('',*,*,#188,.F.);
#319=ORIENTED_EDGE('',*,*,#224,.T.);
#320=ORIENTED_EDGE('',*,*,#183,.F.);
#321=ORIENTED_EDGE('',*,*,#209,.F.);
#322=ORIENTED_EDGE('',*,*,#203,.F.);
#323=ORIENTED_EDGE('',*,*,#195,.F.);
#324=CYLINDRICAL_SURFACE('',#353,2.);
#325=CYLINDRICAL_SURFACE('',#365,2.);
#326=CYLINDRICAL_SURFACE('',#375,2.);
#327=CYLINDRICAL_SURFACE('',#377,2.);
#328=CYLINDRICAL_SURFACE('',#379,3.3);
#329=CYLINDRICAL_SURFACE('',#381,3.3);
#330=CYLINDRICAL_SURFACE('',#383,3.3);
#331=CYLINDRICAL_SURFACE('',#385,3.3);
#332=ADVANCED_FACE('',(#29),#324,.T.);
#333=ADVANCED_FACE('',(#30),#19,.T.);
#334=ADVANCED_FACE('',(#14,#15,#16),#20,.F.);
#335=ADVANCED_FACE('',(#31),#325,.T.);
#336=ADVANCED_FACE('',(#32),#21,.T.);
#337=ADVANCED_FACE('',(#33,#17,#18),#22,.T.);
#338=ADVANCED_FACE('',(#34),#326,.T.);
#339=ADVANCED_FACE('',(#35),#23,.F.);
#340=ADVANCED_FACE('',(#36),#327,.T.);
#341=ADVANCED_FACE('',(#37),#24,.T.);
#342=ADVANCED_FACE('',(#38),#328,.F.);
#343=ADVANCED_FACE('',(#39),#25,.T.);
#344=ADVANCED_FACE('',(#40),#329,.F.);
#345=ADVANCED_FACE('',(#41),#26,.F.);
#346=ADVANCED_FACE('',(#42),#330,.F.);
#347=ADVANCED_FACE('',(#43),#27,.F.);
#348=ADVANCED_FACE('',(#44),#331,.F.);
#349=ADVANCED_FACE('',(#45),#28,.F.);
#350=CLOSED_SHELL('',(#332,#333,#334,#335,#336,#337,#338,#339,#340,#341,
#342,#343,#344,#345,#346,#347,#348,#349));
#351=MANIFOLD_SOLID_BREP('Volumenk\X\F6rper4',#350);
#352=AXIS2_PLACEMENT_3D('placement',#489,#387,#388);
#353=AXIS2_PLACEMENT_3D('',#490,#389,#390);
#354=AXIS2_PLACEMENT_3D('',#493,#391,#392);
#355=AXIS2_PLACEMENT_3D('',#497,#394,#395);
#356=AXIS2_PLACEMENT_3D('',#499,#397,#398);
#357=AXIS2_PLACEMENT_3D('',#505,#402,#403);
#358=AXIS2_PLACEMENT_3D('',#510,#405,#406);
#359=AXIS2_PLACEMENT_3D('',#513,#408,#409);
#360=AXIS2_PLACEMENT_3D('',#518,#411,#412);
#361=AXIS2_PLACEMENT_3D('',#521,#414,#415);
#362=AXIS2_PLACEMENT_3D('',#525,#417,#418);
#363=AXIS2_PLACEMENT_3D('',#529,#420,#421);
#364=AXIS2_PLACEMENT_3D('',#532,#423,#424);
#365=AXIS2_PLACEMENT_3D('',#533,#425,#426);
#366=AXIS2_PLACEMENT_3D('',#536,#427,#428);
#367=AXIS2_PLACEMENT_3D('',#539,#431,#432);
#368=AXIS2_PLACEMENT_3D('',#543,#435,#436);
#369=AXIS2_PLACEMENT_3D('',#545,#437,#438);
#370=AXIS2_PLACEMENT_3D('',#548,#440,#441);
#371=AXIS2_PLACEMENT_3D('',#554,#444,#445);
#372=AXIS2_PLACEMENT_3D('',#557,#447,#448);
#373=AXIS2_PLACEMENT_3D('',#562,#450,#451);
#374=AXIS2_PLACEMENT_3D('',#565,#453,#454);
#375=AXIS2_PLACEMENT_3D('',#566,#455,#456);
#376=AXIS2_PLACEMENT_3D('',#568,#458,#459);
#377=AXIS2_PLACEMENT_3D('',#570,#461,#462);
#378=AXIS2_PLACEMENT_3D('',#571,#463,#464);
#379=AXIS2_PLACEMENT_3D('',#574,#467,#468);
#380=AXIS2_PLACEMENT_3D('',#576,#470,#471);
#381=AXIS2_PLACEMENT_3D('',#578,#473,#474);
#382=AXIS2_PLACEMENT_3D('',#579,#475,#476);
#383=AXIS2_PLACEMENT_3D('',#582,#479,#480);
#384=AXIS2_PLACEMENT_3D('',#584,#482,#483);
#385=AXIS2_PLACEMENT_3D('',#586,#485,#486);
#386=AXIS2_PLACEMENT_3D('',#587,#487,#488);
#387=DIRECTION('axis',(0.,0.,1.));
#388=DIRECTION('refdir',(1.,0.,0.));
#389=DIRECTION('center_axis',(0.,2.61645408033503E-032,-1.));
#390=DIRECTION('ref_axis',(0.707106781186547,-0.707106781186548,0.));
#391=DIRECTION('center_axis',(0.,0.,1.));
#392=DIRECTION('ref_axis',(0.707106781186547,-0.707106781186548,0.));
#393=DIRECTION('',(0.,-2.61645408033503E-032,1.));
#394=DIRECTION('center_axis',(0.,0.,-1.));
#395=DIRECTION('ref_axis',(0.707106781186547,-0.707106781186548,0.));
#396=DIRECTION('',(0.,2.61645408033503E-032,-1.));
#397=DIRECTION('center_axis',(1.,0.,0.));
#398=DIRECTION('ref_axis',(0.,0.,-1.));
#399=DIRECTION('',(0.,1.,0.));
#400=DIRECTION('',(0.,0.,-1.));
#401=DIRECTION('',(0.,-1.,0.));
#402=DIRECTION('center_axis',(0.,0.,1.));
#403=DIRECTION('ref_axis',(1.,0.,0.));
#404=DIRECTION('',(0.,1.,0.));
#405=DIRECTION('center_axis',(0.,0.,1.));
#406=DIRECTION('ref_axis',(1.,0.,0.));
#407=DIRECTION('',(0.,-1.,0.));
#408=DIRECTION('center_axis',(0.,0.,1.));
#409=DIRECTION('ref_axis',(-1.,0.,0.));
#410=DIRECTION('',(0.,-1.,0.));
#411=DIRECTION('center_axis',(0.,0.,1.));
#412=DIRECTION('ref_axis',(1.,0.,0.));
#413=DIRECTION('',(0.,1.,0.));
#414=DIRECTION('center_axis',(0.,0.,1.));
#415=DIRECTION('ref_axis',(-1.,0.,0.));
#416=DIRECTION('',(-1.,0.,0.));
#417=DIRECTION('center_axis',(0.,0.,1.));
#418=DIRECTION('ref_axis',(-0.707106781186547,-0.707106781186548,0.));
#419=DIRECTION('',(0.,-1.,0.));
#420=DIRECTION('center_axis',(0.,0.,1.));
#421=DIRECTION('ref_axis',(-0.611518263526961,0.791230316262572,0.));
#422=DIRECTION('',(0.967703578101553,-0.25209082674594,0.));
#423=DIRECTION('center_axis',(0.,0.,1.));
#424=DIRECTION('ref_axis',(0.791230316262572,0.611518263526961,0.));
#425=DIRECTION('center_axis',(0.,-2.61645408033503E-032,1.));
#426=DIRECTION('ref_axis',(-0.707106781186547,-0.707106781186548,0.));
#427=DIRECTION('center_axis',(0.,0.,-1.));
#428=DIRECTION('ref_axis',(-0.707106781186547,-0.707106781186548,0.));
#429=DIRECTION('',(0.,2.61645408033503E-032,-1.));
#430=DIRECTION('',(0.,-2.61645408033503E-032,1.));
#431=DIRECTION('center_axis',(-1.,0.,0.));
#432=DIRECTION('ref_axis',(0.,0.,1.));
#433=DIRECTION('',(0.,-1.,0.));
#434=DIRECTION('',(0.,0.,1.));
#435=DIRECTION('center_axis',(0.,0.,1.));
#436=DIRECTION('ref_axis',(1.,0.,0.));
#437=DIRECTION('center_axis',(0.,0.,-1.));
#438=DIRECTION('ref_axis',(0.791230316262572,0.611518263526961,0.));
#439=DIRECTION('',(-0.967703578101553,0.25209082674594,0.));
#440=DIRECTION('center_axis',(0.,0.,-1.));
#441=DIRECTION('ref_axis',(-0.611518263526961,0.791230316262572,0.));
#442=DIRECTION('',(1.,0.,0.));
#443=DIRECTION('',(0.,-1.,0.));
#444=DIRECTION('center_axis',(0.,0.,-1.));
#445=DIRECTION('ref_axis',(-1.,0.,0.));
#446=DIRECTION('',(0.,1.,0.));
#447=DIRECTION('center_axis',(0.,0.,-1.));
#448=DIRECTION('ref_axis',(1.,0.,0.));
#449=DIRECTION('',(0.,1.,0.));
#450=DIRECTION('center_axis',(0.,0.,-1.));
#451=DIRECTION('ref_axis',(-1.,0.,0.));
#452=DIRECTION('',(0.,-1.,0.));
#453=DIRECTION('center_axis',(0.,0.,-1.));
#454=DIRECTION('ref_axis',(1.,0.,0.));
#455=DIRECTION('center_axis',(0.,0.,1.));
#456=DIRECTION('ref_axis',(0.791230316262572,0.611518263526961,0.));
#457=DIRECTION('',(0.,0.,1.));
#458=DIRECTION('center_axis',(-0.25209082674594,-0.967703578101553,0.));
#459=DIRECTION('ref_axis',(0.,0.,-1.));
#460=DIRECTION('',(0.,0.,-1.));
#461=DIRECTION('center_axis',(0.,0.,-1.));
#462=DIRECTION('ref_axis',(-0.611518263526961,0.791230316262572,0.));
#463=DIRECTION('center_axis',(1.,0.,0.));
#464=DIRECTION('ref_axis',(0.,0.,-1.));
#465=DIRECTION('',(0.,0.,1.));
#466=DIRECTION('',(0.,0.,1.));
#467=DIRECTION('center_axis',(0.,0.,-1.));
#468=DIRECTION('ref_axis',(1.,0.,0.));
#469=DIRECTION('',(0.,0.,1.));
#470=DIRECTION('center_axis',(-1.,0.,0.));
#471=DIRECTION('ref_axis',(0.,0.,1.));
#472=DIRECTION('',(0.,0.,1.));
#473=DIRECTION('center_axis',(0.,0.,-1.));
#474=DIRECTION('ref_axis',(-1.,0.,0.));
#475=DIRECTION('center_axis',(1.,0.,0.));
#476=DIRECTION('ref_axis',(0.,0.,-1.));
#477=DIRECTION('',(0.,0.,1.));
#478=DIRECTION('',(0.,0.,1.));
#479=DIRECTION('center_axis',(0.,0.,1.));
#480=DIRECTION('ref_axis',(-1.,0.,0.));
#481=DIRECTION('',(0.,0.,1.));
#482=DIRECTION('center_axis',(-1.,0.,0.));
#483=DIRECTION('ref_axis',(0.,0.,1.));
#484=DIRECTION('',(0.,0.,1.));
#485=DIRECTION('center_axis',(0.,0.,1.));
#486=DIRECTION('ref_axis',(1.,0.,0.));
#487=DIRECTION('center_axis',(2.44613089227998E-032,1.,2.61645408033503E-032));
#488=DIRECTION('ref_axis',(0.,0.,1.));
#489=CARTESIAN_POINT('',(0.,0.,0.));
#490=CARTESIAN_POINT('Origin',(17.,-14.,-3.75));
#491=CARTESIAN_POINT('',(17.,-16.,-15.));
#492=CARTESIAN_POINT('',(19.,-14.,-15.));
#493=CARTESIAN_POINT('Origin',(17.,-14.,-15.));
#494=CARTESIAN_POINT('',(19.,-14.,0.));
#495=CARTESIAN_POINT('',(19.,-14.,-3.75));
#496=CARTESIAN_POINT('',(17.,-16.,0.));
#497=CARTESIAN_POINT('Origin',(17.,-14.,0.));
#498=CARTESIAN_POINT('',(17.,-16.,-3.75));
#499=CARTESIAN_POINT('Origin',(19.,-14.,0.));
#500=CARTESIAN_POINT('',(19.,3.13687097223479,-15.));
#501=CARTESIAN_POINT('',(19.,18.,-15.));
#502=CARTESIAN_POINT('',(19.,3.13687097223479,0.));
#503=CARTESIAN_POINT('',(19.,3.13687097223479,-7.5));
#504=CARTESIAN_POINT('',(19.,18.,0.));
#505=CARTESIAN_POINT('Origin',(-1.66533453693773E-015,2.,-15.));
#506=CARTESIAN_POINT('',(16.5,-10.1768069405893,-15.));
#507=CARTESIAN_POINT('',(16.5,1.82319305941072,-15.));
#508=CARTESIAN_POINT('',(16.5,1.91159652970536,-15.));
#509=CARTESIAN_POINT('',(9.9,1.82319305941072,-15.));
#510=CARTESIAN_POINT('Origin',(13.2,1.82319305941072,-15.));
#511=CARTESIAN_POINT('',(9.9,-10.1768069405893,-15.));
#512=CARTESIAN_POINT('',(9.9,-4.08840347029464,-15.));
#513=CARTESIAN_POINT('Origin',(13.2,-10.1768069405893,-15.));
#514=CARTESIAN_POINT('',(-16.5,1.82319305941072,-15.));
#515=CARTESIAN_POINT('',(-16.5,-10.1768069405893,-15.));
#516=CARTESIAN_POINT('',(-16.5,1.91159652970536,-15.));
#517=CARTESIAN_POINT('',(-9.90000000000001,-10.1768069405893,-15.));
#518=CARTESIAN_POINT('Origin',(-13.2,-10.1768069405893,-15.));
#519=CARTESIAN_POINT('',(-9.90000000000001,1.82319305941072,-15.));
#520=CARTESIAN_POINT('',(-9.90000000000001,-4.08840347029464,-15.));
#521=CARTESIAN_POINT('Origin',(-13.2,1.82319305941072,-15.));
#522=CARTESIAN_POINT('',(-17.,-16.,-15.));
#523=CARTESIAN_POINT('',(-19.,-16.,-15.));
#524=CARTESIAN_POINT('',(-19.,-14.,-15.));
#525=CARTESIAN_POINT('Origin',(-17.,-14.,-15.));
#526=CARTESIAN_POINT('',(-19.,11.9940130799211,-15.));
#527=CARTESIAN_POINT('',(-19.,-14.,-15.));
#528=CARTESIAN_POINT('',(-16.4958183465081,13.9294202361242,-15.));
#529=CARTESIAN_POINT('Origin',(-17.,11.9940130799211,-15.));
#530=CARTESIAN_POINT('',(17.5041816534919,5.07227812843789,-15.));
#531=CARTESIAN_POINT('',(10.4309333779217,6.91488886784002,-15.));
#532=CARTESIAN_POINT('Origin',(17.,3.13687097223479,-15.));
#533=CARTESIAN_POINT('Origin',(-17.,-14.,-3.75));
#534=CARTESIAN_POINT('',(-17.,-16.,0.));
#535=CARTESIAN_POINT('',(-19.,-14.,0.));
#536=CARTESIAN_POINT('Origin',(-17.,-14.,0.));
#537=CARTESIAN_POINT('',(-19.,-14.,-3.75));
#538=CARTESIAN_POINT('',(-17.,-16.,-3.75));
#539=CARTESIAN_POINT('Origin',(-19.,18.,0.));
#540=CARTESIAN_POINT('',(-19.,11.9940130799211,0.));
#541=CARTESIAN_POINT('',(-19.,-14.,0.));
#542=CARTESIAN_POINT('',(-19.,11.9940130799211,-7.5));
#543=CARTESIAN_POINT('Origin',(-1.66533453693773E-015,2.,0.));
#544=CARTESIAN_POINT('',(17.5041816534919,5.07227812843789,-1.11022302462516E-015));
#545=CARTESIAN_POINT('Origin',(17.,3.13687097223479,0.));
#546=CARTESIAN_POINT('',(-16.4958183465081,13.9294202361242,-1.11022302462516E-015));
#547=CARTESIAN_POINT('',(10.4309333779217,6.91488886784002,-1.11022302462516E-015));
#548=CARTESIAN_POINT('Origin',(-17.,11.9940130799211,0.));
#549=CARTESIAN_POINT('',(19.,-16.,0.));
#550=CARTESIAN_POINT('',(16.5,1.82319305941072,0.));
#551=CARTESIAN_POINT('',(16.5,-10.1768069405893,0.));
#552=CARTESIAN_POINT('',(16.5,1.91159652970536,0.));
#553=CARTESIAN_POINT('',(9.9,-10.1768069405893,0.));
#554=CARTESIAN_POINT('Origin',(13.2,-10.1768069405893,0.));
#555=CARTESIAN_POINT('',(9.9,1.82319305941072,0.));
#556=CARTESIAN_POINT('',(9.9,-4.08840347029464,0.));
#557=CARTESIAN_POINT('Origin',(13.2,1.82319305941072,0.));
#558=CARTESIAN_POINT('',(-16.5,-10.1768069405893,0.));
#559=CARTESIAN_POINT('',(-16.5,1.82319305941072,0.));
#560=CARTESIAN_POINT('',(-16.5,1.91159652970536,0.));
#561=CARTESIAN_POINT('',(-9.90000000000001,1.82319305941072,0.));
#562=CARTESIAN_POINT('Origin',(-13.2,1.82319305941072,0.));
#563=CARTESIAN_POINT('',(-9.90000000000001,-10.1768069405893,0.));
#564=CARTESIAN_POINT('',(-9.90000000000001,-4.08840347029464,0.));
#565=CARTESIAN_POINT('Origin',(-13.2,-10.1768069405893,0.));
#566=CARTESIAN_POINT('Origin',(17.,3.13687097223479,-7.5));
#567=CARTESIAN_POINT('',(17.5041816534919,5.07227812843789,-7.5));
#568=CARTESIAN_POINT('Origin',(19.,4.68261119719358,-15.));
#569=CARTESIAN_POINT('',(-16.4958183465081,13.9294202361242,-7.5));
#570=CARTESIAN_POINT('Origin',(-17.,11.9940130799211,-7.5));
#571=CARTESIAN_POINT('Origin',(-16.5,1.82319305941072,-15.));
#572=CARTESIAN_POINT('',(-16.5,-10.1768069405893,-15.));
#573=CARTESIAN_POINT('',(-16.5,1.82319305941072,-15.));
#574=CARTESIAN_POINT('Origin',(-13.2,-10.1768069405893,-15.));
#575=CARTESIAN_POINT('',(-9.90000000000001,-10.1768069405893,-15.));
#576=CARTESIAN_POINT('Origin',(-9.90000000000001,-10.1768069405893,-15.));
#577=CARTESIAN_POINT('',(-9.90000000000001,1.82319305941072,-15.));
#578=CARTESIAN_POINT('Origin',(-13.2,1.82319305941072,-15.));
#579=CARTESIAN_POINT('Origin',(16.5,1.82319305941072,-15.));
#580=CARTESIAN_POINT('',(16.5,1.82319305941072,-15.));
#581=CARTESIAN_POINT('',(16.5,-10.1768069405893,-15.));
#582=CARTESIAN_POINT('Origin',(13.2,-10.1768069405893,-15.));
#583=CARTESIAN_POINT('',(9.9,-10.1768069405893,-15.));
#584=CARTESIAN_POINT('Origin',(9.9,-10.1768069405893,-15.));
#585=CARTESIAN_POINT('',(9.9,1.82319305941072,-15.));
#586=CARTESIAN_POINT('Origin',(13.2,1.82319305941072,-15.));
#587=CARTESIAN_POINT('Origin',(-1.66533453693773E-015,-16.,-7.5));
#588=UNCERTAINTY_MEASURE_WITH_UNIT(LENGTH_MEASURE(0.01),#592,
'DISTANCE_ACCURACY_VALUE',
'Maximum model space distance between geometric entities at asserted c
onnectivities');
#589=UNCERTAINTY_MEASURE_WITH_UNIT(LENGTH_MEASURE(1.E-006),#592,
'DISTANCE_ACCURACY_VALUE',
'Maximum model space distance between geometric entities at asserted c
onnectivities');
#590=(
GEOMETRIC_REPRESENTATION_CONTEXT(3)
GLOBAL_UNCERTAINTY_ASSIGNED_CONTEXT((#588))
GLOBAL_UNIT_ASSIGNED_CONTEXT((#592,#595,#593))
REPRESENTATION_CONTEXT('','3D')
);
#591=(
GEOMETRIC_REPRESENTATION_CONTEXT(3)
GLOBAL_UNCERTAINTY_ASSIGNED_CONTEXT((#589))
GLOBAL_UNIT_ASSIGNED_CONTEXT((#592,#595,#593))
REPRESENTATION_CONTEXT('','3D')
);
#592=(
LENGTH_UNIT()
NAMED_UNIT(*)
SI_UNIT(.MILLI.,.METRE.)
);
#593=(
NAMED_UNIT(*)
SI_UNIT($,.STERADIAN.)
SOLID_ANGLE_UNIT()
);
#594=DIMENSIONAL_EXPONENTS(0.,0.,0.,0.,0.,0.,0.);
#595=(
CONVERSION_BASED_UNIT('degree',#597)
NAMED_UNIT(#594)
PLANE_ANGLE_UNIT()
);
#596=(
NAMED_UNIT(*)
PLANE_ANGLE_UNIT()
SI_UNIT($,.RADIAN.)
);
#597=PLANE_ANGLE_MEASURE_WITH_UNIT(PLANE_ANGLE_MEASURE(0.01745329252),#596);
#598=SHAPE_DEFINITION_REPRESENTATION(#599,#600);
#599=PRODUCT_DEFINITION_SHAPE('',$,#602);
#600=SHAPE_REPRESENTATION('',(#352),#590);
#601=DESIGN_CONTEXT('part definition',#606,'design');
#602=PRODUCT_DEFINITION('13198_KriTec_Rasterplatte_fuer_Miniraster',
'13198_KriTec_Rasterplatte_fuer_Miniraster',#603,#601);
#603=PRODUCT_DEFINITION_FORMATION('',$,#608);
#604=PRODUCT_RELATED_PRODUCT_CATEGORY(
'13198_KriTec_Rasterplatte_fuer_Miniraster',
'13198_KriTec_Rasterplatte_fuer_Miniraster',(#608));
#605=APPLICATION_PROTOCOL_DEFINITION('international standard',
'ap203_configuration_controlled_3d_design_of_mechanical_parts_and_asse
mblies_mim_lf',2004,#606);
#606=APPLICATION_CONTEXT(
'Configuration Controlled 3D Design of Mechanical Parts and Assemblies');
#607=MECHANICAL_CONTEXT('part definition',#606,'mechanical');
#608=PRODUCT('13198_KriTec_Rasterplatte_fuer_Miniraster',
'13198_KriTec_Rasterplatte_fuer_Miniraster',$,(#607));
#609=PRESENTATION_STYLE_ASSIGNMENT((#610));
#610=SURFACE_STYLE_USAGE(.BOTH.,#611);
#611=SURFACE_SIDE_STYLE($,(#612));
#612=SURFACE_STYLE_FILL_AREA(#613);
#613=FILL_AREA_STYLE($,(#614));
#614=FILL_AREA_STYLE_COLOUR($,#615);
#615=COLOUR_RGB('',0.411764705882353,0.411764705882353,0.411764705882353);
ENDSEC;
END-ISO-10303-21;
