ISO-10303-21;
HEADER;
/* Generated by software containing ST-Developer
 * from STEP Tools, Inc. (www.steptools.com) 
 */

FILE_DESCRIPTION(
/* description */ ('Titel eingeben'),
/* implementation_level */ '2;1');

FILE_NAME(
/* name */ 
'S:\\Bilder_neu\\13149_KriTec_Prallschutz_D28_L=2000mm\\Inventordateie
n\\13149_KriTec_Prallschutz_D28_L2000mm.stp',
/* time_stamp */ '2018-01-18T15:39:21+01:00',
/* author */ ('Steiner'),
/* organization */ (''),
/* preprocessor_version */ 'ST-DEVELOPER v16.1',
/* originating_system */ 'Autodesk Inventor 2016',
/* authorisation */ '');

FILE_SCHEMA (('CONFIG_CONTROL_DESIGN'));
ENDSEC;

DATA;
#10=MECHANICAL_DESIGN_GEOMETRIC_PRESENTATION_REPRESENTATION('',(#13),#174);
#11=SHAPE_REPRESENTATION_RELATIONSHIP('SRR','None',#183,#12);
#12=ADVANCED_BREP_SHAPE_REPRESENTATION('',(#14),#173);
#13=STYLED_ITEM('',(#192),#14);
#14=MANIFOLD_SOLID_BREP('Volumenk\X\F6rper4',#104);
#15=LINE('',#154,#22);
#16=LINE('',#156,#23);
#17=LINE('',#158,#24);
#18=LINE('',#159,#25);
#19=LINE('',#165,#26);
#20=LINE('',#167,#27);
#21=LINE('',#168,#28);
#22=VECTOR('',#126,0.501871507100821);
#23=VECTOR('',#127,1000.);
#24=VECTOR('',#128,0.501871507100821);
#25=VECTOR('',#129,1000.);
#26=VECTOR('',#136,1000.);
#27=VECTOR('',#139,0.501871507100821);
#28=VECTOR('',#140,0.501871507100821);
#29=PLANE('',#109);
#30=PLANE('',#113);
#31=PLANE('',#114);
#32=PLANE('',#115);
#33=FACE_BOUND('',#43,.T.);
#34=FACE_BOUND('',#48,.T.);
#35=FACE_BOUND('',#50,.T.);
#36=FACE_OUTER_BOUND('',#42,.T.);
#37=FACE_OUTER_BOUND('',#44,.T.);
#38=FACE_OUTER_BOUND('',#45,.T.);
#39=FACE_OUTER_BOUND('',#46,.T.);
#40=FACE_OUTER_BOUND('',#47,.T.);
#41=FACE_OUTER_BOUND('',#49,.T.);
#42=EDGE_LOOP('',(#74));
#43=EDGE_LOOP('',(#75));
#44=EDGE_LOOP('',(#76,#77,#78,#79));
#45=EDGE_LOOP('',(#80,#81,#82,#83));
#46=EDGE_LOOP('',(#84,#85,#86,#87));
#47=EDGE_LOOP('',(#88,#89,#90));
#48=EDGE_LOOP('',(#91));
#49=EDGE_LOOP('',(#92,#93,#94));
#50=EDGE_LOOP('',(#95));
#51=CIRCLE('',#107,14.);
#52=CIRCLE('',#108,14.);
#53=CIRCLE('',#111,25.);
#54=CIRCLE('',#112,25.);
#55=VERTEX_POINT('',#147);
#56=VERTEX_POINT('',#149);
#57=VERTEX_POINT('',#152);
#58=VERTEX_POINT('',#153);
#59=VERTEX_POINT('',#155);
#60=VERTEX_POINT('',#157);
#61=VERTEX_POINT('',#161);
#62=VERTEX_POINT('',#163);
#63=EDGE_CURVE('',#55,#55,#51,.T.);
#64=EDGE_CURVE('',#56,#56,#52,.T.);
#65=EDGE_CURVE('',#57,#58,#15,.T.);
#66=EDGE_CURVE('',#58,#59,#16,.T.);
#67=EDGE_CURVE('',#60,#59,#17,.T.);
#68=EDGE_CURVE('',#57,#60,#18,.T.);
#69=EDGE_CURVE('',#61,#57,#53,.T.);
#70=EDGE_CURVE('',#62,#60,#54,.T.);
#71=EDGE_CURVE('',#61,#62,#19,.T.);
#72=EDGE_CURVE('',#58,#61,#20,.T.);
#73=EDGE_CURVE('',#59,#62,#21,.T.);
#74=ORIENTED_EDGE('',*,*,#63,.F.);
#75=ORIENTED_EDGE('',*,*,#64,.F.);
#76=ORIENTED_EDGE('',*,*,#65,.T.);
#77=ORIENTED_EDGE('',*,*,#66,.T.);
#78=ORIENTED_EDGE('',*,*,#67,.F.);
#79=ORIENTED_EDGE('',*,*,#68,.F.);
#80=ORIENTED_EDGE('',*,*,#69,.T.);
#81=ORIENTED_EDGE('',*,*,#68,.T.);
#82=ORIENTED_EDGE('',*,*,#70,.F.);
#83=ORIENTED_EDGE('',*,*,#71,.F.);
#84=ORIENTED_EDGE('',*,*,#72,.T.);
#85=ORIENTED_EDGE('',*,*,#71,.T.);
#86=ORIENTED_EDGE('',*,*,#73,.F.);
#87=ORIENTED_EDGE('',*,*,#66,.F.);
#88=ORIENTED_EDGE('',*,*,#73,.T.);
#89=ORIENTED_EDGE('',*,*,#70,.T.);
#90=ORIENTED_EDGE('',*,*,#67,.T.);
#91=ORIENTED_EDGE('',*,*,#63,.T.);
#92=ORIENTED_EDGE('',*,*,#72,.F.);
#93=ORIENTED_EDGE('',*,*,#65,.F.);
#94=ORIENTED_EDGE('',*,*,#69,.F.);
#95=ORIENTED_EDGE('',*,*,#64,.T.);
#96=CYLINDRICAL_SURFACE('',#106,14.);
#97=CYLINDRICAL_SURFACE('',#110,25.);
#98=ADVANCED_FACE('',(#36,#33),#96,.F.);
#99=ADVANCED_FACE('',(#37),#29,.T.);
#100=ADVANCED_FACE('',(#38),#97,.T.);
#101=ADVANCED_FACE('',(#39),#30,.T.);
#102=ADVANCED_FACE('',(#40,#34),#31,.T.);
#103=ADVANCED_FACE('',(#41,#35),#32,.F.);
#104=CLOSED_SHELL('',(#98,#99,#100,#101,#102,#103));
#105=AXIS2_PLACEMENT_3D('placement',#145,#116,#117);
#106=AXIS2_PLACEMENT_3D('',#146,#118,#119);
#107=AXIS2_PLACEMENT_3D('',#148,#120,#121);
#108=AXIS2_PLACEMENT_3D('',#150,#122,#123);
#109=AXIS2_PLACEMENT_3D('',#151,#124,#125);
#110=AXIS2_PLACEMENT_3D('',#160,#130,#131);
#111=AXIS2_PLACEMENT_3D('',#162,#132,#133);
#112=AXIS2_PLACEMENT_3D('',#164,#134,#135);
#113=AXIS2_PLACEMENT_3D('',#166,#137,#138);
#114=AXIS2_PLACEMENT_3D('',#169,#141,#142);
#115=AXIS2_PLACEMENT_3D('',#170,#143,#144);
#116=DIRECTION('axis',(0.,0.,1.));
#117=DIRECTION('refdir',(1.,0.,0.));
#118=DIRECTION('center_axis',(0.,0.,1.));
#119=DIRECTION('ref_axis',(-1.,0.,0.));
#120=DIRECTION('center_axis',(0.,0.,-1.));
#121=DIRECTION('ref_axis',(-1.,0.,0.));
#122=DIRECTION('center_axis',(0.,0.,1.));
#123=DIRECTION('ref_axis',(-1.,0.,0.));
#124=DIRECTION('center_axis',(0.0871557427476591,0.996194698091745,0.));
#125=DIRECTION('ref_axis',(-0.996194698091746,0.0871557427476591,0.));
#126=DIRECTION('',(-0.996194698091746,0.0871557427476591,0.));
#127=DIRECTION('',(0.,0.,1.));
#128=DIRECTION('',(-0.996194698091746,0.0871557427476591,0.));
#129=DIRECTION('',(0.,0.,1.));
#130=DIRECTION('center_axis',(0.,0.,1.));
#131=DIRECTION('ref_axis',(0.999998469379886,0.00174963935861037,0.));
#132=DIRECTION('center_axis',(0.,0.,1.));
#133=DIRECTION('ref_axis',(0.999998469379886,0.00174963935861037,0.));
#134=DIRECTION('center_axis',(0.,0.,1.));
#135=DIRECTION('ref_axis',(0.999998469379886,0.00174963935861037,0.));
#136=DIRECTION('',(0.,0.,1.));
#137=DIRECTION('center_axis',(0.0871557427476591,-0.996194698091745,0.));
#138=DIRECTION('ref_axis',(0.996194698091746,0.0871557427476592,0.));
#139=DIRECTION('',(0.996194698091746,0.0871557427476591,0.));
#140=DIRECTION('',(0.996194698091746,0.0871557427476591,0.));
#141=DIRECTION('center_axis',(0.,0.,1.));
#142=DIRECTION('ref_axis',(1.,0.,0.));
#143=DIRECTION('center_axis',(0.,0.,1.));
#144=DIRECTION('ref_axis',(1.,0.,0.));
#145=CARTESIAN_POINT('',(0.,0.,0.));
#146=CARTESIAN_POINT('Origin',(0.,0.,0.));
#147=CARTESIAN_POINT('',(14.,1.71450551880629E-15,1000.));
#148=CARTESIAN_POINT('Origin',(0.,0.,1000.));
#149=CARTESIAN_POINT('',(14.,1.71450551880629E-15,0.));
#150=CARTESIAN_POINT('Origin',(0.,0.,0.));
#151=CARTESIAN_POINT('Origin',(24.9999617344972,-0.0437409839652592,0.));
#152=CARTESIAN_POINT('',(24.9999617344972,-0.0437409839652592,0.));
#153=CARTESIAN_POINT('',(24.5,0.,0.));
#154=CARTESIAN_POINT('',(24.9999617344972,-0.0437409839652592,0.));
#155=CARTESIAN_POINT('',(24.5,0.,1000.));
#156=CARTESIAN_POINT('',(24.5,0.,0.));
#157=CARTESIAN_POINT('',(24.9999617344972,-0.0437409839652592,1000.));
#158=CARTESIAN_POINT('',(24.9999617344972,-0.0437409839652592,1000.));
#159=CARTESIAN_POINT('',(24.9999617344972,-0.0437409839652592,0.));
#160=CARTESIAN_POINT('Origin',(0.,0.,0.));
#161=CARTESIAN_POINT('',(24.9999617344972,0.0437409839652592,0.));
#162=CARTESIAN_POINT('Origin',(0.,0.,0.));
#163=CARTESIAN_POINT('',(24.9999617344972,0.0437409839652592,1000.));
#164=CARTESIAN_POINT('Origin',(0.,0.,1000.));
#165=CARTESIAN_POINT('',(24.9999617344972,0.0437409839652592,0.));
#166=CARTESIAN_POINT('Origin',(24.5,0.,0.));
#167=CARTESIAN_POINT('',(24.5,0.,0.));
#168=CARTESIAN_POINT('',(24.5,0.,1000.));
#169=CARTESIAN_POINT('Origin',(0.195391484953812,-1.39446894757946E-15,
1000.));
#170=CARTESIAN_POINT('Origin',(0.195391484953812,-1.39446894757946E-15,
0.));
#171=UNCERTAINTY_MEASURE_WITH_UNIT(LENGTH_MEASURE(0.01),#175,
'DISTANCE_ACCURACY_VALUE',
'Maximum model space distance between geometric entities at asserted c
onnectivities');
#172=UNCERTAINTY_MEASURE_WITH_UNIT(LENGTH_MEASURE(1.E-6),#175,
'DISTANCE_ACCURACY_VALUE',
'Maximum model space distance between geometric entities at asserted c
onnectivities');
#173=(
GEOMETRIC_REPRESENTATION_CONTEXT(3)
GLOBAL_UNCERTAINTY_ASSIGNED_CONTEXT((#171))
GLOBAL_UNIT_ASSIGNED_CONTEXT((#175,#178,#176))
REPRESENTATION_CONTEXT('','3D')
);
#174=(
GEOMETRIC_REPRESENTATION_CONTEXT(3)
GLOBAL_UNCERTAINTY_ASSIGNED_CONTEXT((#172))
GLOBAL_UNIT_ASSIGNED_CONTEXT((#175,#178,#176))
REPRESENTATION_CONTEXT('','3D')
);
#175=(
LENGTH_UNIT()
NAMED_UNIT(*)
SI_UNIT(.MILLI.,.METRE.)
);
#176=(
NAMED_UNIT(*)
SI_UNIT($,.STERADIAN.)
SOLID_ANGLE_UNIT()
);
#177=DIMENSIONAL_EXPONENTS(0.,0.,0.,0.,0.,0.,0.);
#178=(
CONVERSION_BASED_UNIT('degree',#180)
NAMED_UNIT(#177)
PLANE_ANGLE_UNIT()
);
#179=(
NAMED_UNIT(*)
PLANE_ANGLE_UNIT()
SI_UNIT($,.RADIAN.)
);
#180=PLANE_ANGLE_MEASURE_WITH_UNIT(PLANE_ANGLE_MEASURE(0.01745329252),#179);
#181=SHAPE_DEFINITION_REPRESENTATION(#182,#183);
#182=PRODUCT_DEFINITION_SHAPE('',$,#185);
#183=SHAPE_REPRESENTATION('',(#105),#173);
#184=DESIGN_CONTEXT('part definition',#189,'design');
#185=PRODUCT_DEFINITION('13149_KriTec_Prallschutz_D28_L=2000mm',
'13149_KriTec_Prallschutz_D28_L=2000mm',#186,#184);
#186=PRODUCT_DEFINITION_FORMATION('','00',#191);
#187=PRODUCT_RELATED_PRODUCT_CATEGORY(
'13149_KriTec_Prallschutz_D28_L=2000mm',
'13149_KriTec_Prallschutz_D28_L=2000mm',(#191));
#188=APPLICATION_PROTOCOL_DEFINITION('international standard',
'ap203_configuration_controlled_3d_design_of_mechanical_parts_and_asse
mblies_mim_lf',2004,#189);
#189=APPLICATION_CONTEXT(
'Configuration Controlled 3D Design of Mechanical Parts and Assemblies');
#190=MECHANICAL_CONTEXT('part definition',#189,'mechanical');
#191=PRODUCT('13149_KriTec_Prallschutz_D28_L=2000mm',
'13149_KriTec_Prallschutz_D28_L=2000mm',$,(#190));
#192=PRESENTATION_STYLE_ASSIGNMENT((#193));
#193=SURFACE_STYLE_USAGE(.BOTH.,#194);
#194=SURFACE_SIDE_STYLE('',(#195));
#195=SURFACE_STYLE_FILL_AREA(#196);
#196=FILL_AREA_STYLE('',(#197));
#197=FILL_AREA_STYLE_COLOUR('',#198);
#198=COLOUR_RGB('',0.807843137254902,0.807843137254902,0.807843137254902);
ENDSEC;
END-ISO-10303-21;
