ISO-10303-21;
HEADER;
/* Generated by software containing ST-Developer
 * from STEP Tools, Inc. (www.steptools.com) 
 */

FILE_DESCRIPTION(
/* description */ (''),
/* implementation_level */ '2;1');

FILE_NAME(
/* name */ 
'S:\\Bilder_neu\\13119_KriTec_Anschwei\X\DFwinkel_80x80x8_Stahl\\Inven
tordateien\\13119_KriTec_Anschwei\X\DFwinkel_80x80x8_Stahl.stp',
/* time_stamp */ '2014-10-31T17:05:55+01:00',
/* author */ ('kostic'),
/* organization */ (''),
/* preprocessor_version */ 'ST-DEVELOPER v15.2',
/* originating_system */ 'Autodesk Inventor 2014',
/* authorisation */ '');

FILE_SCHEMA (('AUTOMOTIVE_DESIGN { 1 0 10303 214 3 1 1 }'));
ENDSEC;

DATA;
#10=SHAPE_REPRESENTATION_RELATIONSHIP('SRR','None',#704,#11);
#11=ADVANCED_BREP_SHAPE_REPRESENTATION($,(#389),#695);
#12=STYLED_ITEM($,(#712),#389);
#13=LINE($,#626,#36);
#14=LINE($,#628,#37);
#15=LINE($,#630,#38);
#16=LINE($,#632,#39);
#17=LINE($,#633,#40);
#18=LINE($,#634,#41);
#19=LINE($,#651,#42);
#20=LINE($,#657,#43);
#21=LINE($,#661,#44);
#22=LINE($,#663,#45);
#23=LINE($,#665,#46);
#24=LINE($,#666,#47);
#25=LINE($,#669,#48);
#26=LINE($,#670,#49);
#27=LINE($,#674,#50);
#28=LINE($,#677,#51);
#29=LINE($,#678,#52);
#30=LINE($,#681,#53);
#31=LINE($,#682,#54);
#32=LINE($,#685,#55);
#33=LINE($,#686,#56);
#34=LINE($,#689,#57);
#35=LINE($,#690,#58);
#36=VECTOR($,#480,12.7715838525995);
#37=VECTOR($,#481,57.);
#38=VECTOR($,#482,80.);
#39=VECTOR($,#483,57.);
#40=VECTOR($,#484,12.7715838525995);
#41=VECTOR($,#485,25.543167705199);
#42=VECTOR($,#506,80.);
#43=VECTOR($,#513,57.);
#44=VECTOR($,#516,3.);
#45=VECTOR($,#517,80.);
#46=VECTOR($,#518,80.);
#47=VECTOR($,#519,3.);
#48=VECTOR($,#522,57.);
#49=VECTOR($,#523,80.);
#50=VECTOR($,#528,80.);
#51=VECTOR($,#531,3.);
#52=VECTOR($,#532,80.);
#53=VECTOR($,#535,80.);
#54=VECTOR($,#536,80.);
#55=VECTOR($,#539,80.);
#56=VECTOR($,#540,80.);
#57=VECTOR($,#543,3.);
#58=VECTOR($,#544,80.);
#59=B_SPLINE_CURVE_WITH_KNOTS($,3,(#563,#564,#565,#566,#567,#568,#569,#570,
#571,#572,#573,#574,#575,#576,#577,#578,#579,#580,#581),.UNSPECIFIED.,.F.,
 .F.,(4,2,2,2,3,2,2,2,4),(-0.955357366039737,-0.870773682022978,-0.58757883652083,
-0.293789418260415,0.,0.293789418260415,0.58757883652083,0.870773682022978,
0.955357366039737),.UNSPECIFIED.);
#60=B_SPLINE_CURVE_WITH_KNOTS($,3,(#591,#592,#593,#594,#595,#596,#597,#598,
#599,#600,#601,#602,#603,#604,#605,#606,#607,#608,#609),.UNSPECIFIED.,.F.,
 .F.,(4,2,2,2,3,2,2,2,4),(-0.955357366039737,-0.870773682022978,-0.58757883652083,
-0.293789418260415,0.,0.293789418260415,0.58757883652083,0.870773682022978,
0.955357366039737),.UNSPECIFIED.);
#61=PLANE($,#394);
#62=PLANE($,#399);
#63=PLANE($,#404);
#64=PLANE($,#409);
#65=PLANE($,#411);
#66=PLANE($,#423);
#67=PLANE($,#426);
#68=PLANE($,#429);
#69=PLANE($,#430);
#70=PLANE($,#431);
#71=PLANE($,#432);
#72=PLANE($,#435);
#73=FACE_BOUND($,#115,.T.);
#74=FACE_BOUND($,#116,.T.);
#75=FACE_BOUND($,#117,.T.);
#76=FACE_BOUND($,#119,.T.);
#77=FACE_BOUND($,#120,.T.);
#78=FACE_BOUND($,#121,.T.);
#79=FACE_BOUND($,#123,.T.);
#80=FACE_BOUND($,#124,.T.);
#81=FACE_BOUND($,#125,.T.);
#82=FACE_BOUND($,#127,.T.);
#83=FACE_BOUND($,#128,.T.);
#84=FACE_BOUND($,#129,.T.);
#85=FACE_BOUND($,#131,.T.);
#86=FACE_BOUND($,#132,.T.);
#87=FACE_BOUND($,#134,.T.);
#88=FACE_BOUND($,#136,.T.);
#89=FACE_BOUND($,#138,.T.);
#90=FACE_BOUND($,#140,.T.);
#91=FACE_BOUND($,#147,.T.);
#92=FACE_BOUND($,#148,.T.);
#93=FACE_BOUND($,#149,.T.);
#94=FACE_BOUND($,#150,.T.);
#95=FACE_BOUND($,#151,.T.);
#96=FACE_OUTER_BOUND($,#114,.T.);
#97=FACE_OUTER_BOUND($,#118,.T.);
#98=FACE_OUTER_BOUND($,#122,.T.);
#99=FACE_OUTER_BOUND($,#126,.T.);
#100=FACE_OUTER_BOUND($,#130,.T.);
#101=FACE_OUTER_BOUND($,#133,.T.);
#102=FACE_OUTER_BOUND($,#135,.T.);
#103=FACE_OUTER_BOUND($,#137,.T.);
#104=FACE_OUTER_BOUND($,#139,.T.);
#105=FACE_OUTER_BOUND($,#141,.T.);
#106=FACE_OUTER_BOUND($,#142,.T.);
#107=FACE_OUTER_BOUND($,#143,.T.);
#108=FACE_OUTER_BOUND($,#144,.T.);
#109=FACE_OUTER_BOUND($,#145,.T.);
#110=FACE_OUTER_BOUND($,#146,.T.);
#111=FACE_OUTER_BOUND($,#152,.T.);
#112=FACE_OUTER_BOUND($,#153,.T.);
#113=FACE_OUTER_BOUND($,#154,.T.);
#114=EDGE_LOOP($,(#260));
#115=EDGE_LOOP($,(#261));
#116=EDGE_LOOP($,(#262));
#117=EDGE_LOOP($,(#263));
#118=EDGE_LOOP($,(#264,#265));
#119=EDGE_LOOP($,(#266));
#120=EDGE_LOOP($,(#267));
#121=EDGE_LOOP($,(#268));
#122=EDGE_LOOP($,(#269,#270));
#123=EDGE_LOOP($,(#271));
#124=EDGE_LOOP($,(#272));
#125=EDGE_LOOP($,(#273));
#126=EDGE_LOOP($,(#274));
#127=EDGE_LOOP($,(#275));
#128=EDGE_LOOP($,(#276));
#129=EDGE_LOOP($,(#277));
#130=EDGE_LOOP($,(#278,#279,#280,#281,#282,#283,#284,#285));
#131=EDGE_LOOP($,(#286));
#132=EDGE_LOOP($,(#287));
#133=EDGE_LOOP($,(#288));
#134=EDGE_LOOP($,(#289));
#135=EDGE_LOOP($,(#290));
#136=EDGE_LOOP($,(#291));
#137=EDGE_LOOP($,(#292));
#138=EDGE_LOOP($,(#293));
#139=EDGE_LOOP($,(#294));
#140=EDGE_LOOP($,(#295));
#141=EDGE_LOOP($,(#296,#297,#298,#299,#300,#301,#302,#303));
#142=EDGE_LOOP($,(#304,#305,#306,#307,#308,#309,#310,#311,#312));
#143=EDGE_LOOP($,(#313,#314,#315,#316));
#144=EDGE_LOOP($,(#317,#318,#319,#320));
#145=EDGE_LOOP($,(#321,#322,#323,#324));
#146=EDGE_LOOP($,(#325,#326,#327,#328));
#147=EDGE_LOOP($,(#329));
#148=EDGE_LOOP($,(#330));
#149=EDGE_LOOP($,(#331));
#150=EDGE_LOOP($,(#332));
#151=EDGE_LOOP($,(#333,#334,#335,#336));
#152=EDGE_LOOP($,(#337,#338,#339,#340));
#153=EDGE_LOOP($,(#341,#342,#343,#344));
#154=EDGE_LOOP($,(#345,#346,#347,#348,#349,#350,#351,#352,#353));
#155=CIRCLE($,#392,7.5);
#156=CIRCLE($,#393,7.5);
#157=CIRCLE($,#395,4.2);
#158=CIRCLE($,#397,7.5);
#159=CIRCLE($,#398,7.5);
#160=CIRCLE($,#400,4.2);
#161=CIRCLE($,#402,7.5);
#162=CIRCLE($,#403,7.5);
#163=CIRCLE($,#405,4.2);
#164=CIRCLE($,#407,7.5);
#165=CIRCLE($,#408,7.5);
#166=CIRCLE($,#410,4.2);
#167=CIRCLE($,#413,4.2);
#168=CIRCLE($,#415,4.2);
#169=CIRCLE($,#417,4.2);
#170=CIRCLE($,#419,4.2);
#171=CIRCLE($,#421,10.);
#172=CIRCLE($,#422,10.);
#173=CIRCLE($,#424,5.);
#174=CIRCLE($,#425,5.);
#175=CIRCLE($,#428,5.);
#176=CIRCLE($,#434,5.);
#177=VERTEX_POINT($,#553);
#178=VERTEX_POINT($,#555);
#179=VERTEX_POINT($,#558);
#180=VERTEX_POINT($,#561);
#181=VERTEX_POINT($,#562);
#182=VERTEX_POINT($,#583);
#183=VERTEX_POINT($,#586);
#184=VERTEX_POINT($,#589);
#185=VERTEX_POINT($,#590);
#186=VERTEX_POINT($,#611);
#187=VERTEX_POINT($,#614);
#188=VERTEX_POINT($,#617);
#189=VERTEX_POINT($,#619);
#190=VERTEX_POINT($,#622);
#191=VERTEX_POINT($,#625);
#192=VERTEX_POINT($,#627);
#193=VERTEX_POINT($,#629);
#194=VERTEX_POINT($,#631);
#195=VERTEX_POINT($,#636);
#196=VERTEX_POINT($,#639);
#197=VERTEX_POINT($,#642);
#198=VERTEX_POINT($,#645);
#199=VERTEX_POINT($,#648);
#200=VERTEX_POINT($,#650);
#201=VERTEX_POINT($,#654);
#202=VERTEX_POINT($,#656);
#203=VERTEX_POINT($,#658);
#204=VERTEX_POINT($,#660);
#205=VERTEX_POINT($,#662);
#206=VERTEX_POINT($,#664);
#207=VERTEX_POINT($,#668);
#208=VERTEX_POINT($,#672);
#209=VERTEX_POINT($,#676);
#210=VERTEX_POINT($,#680);
#211=VERTEX_POINT($,#684);
#212=VERTEX_POINT($,#688);
#213=EDGE_CURVE($,#177,#177,#155,.T.);
#214=EDGE_CURVE($,#178,#178,#156,.T.);
#215=EDGE_CURVE($,#179,#179,#157,.T.);
#216=EDGE_CURVE($,#180,#181,#59,.T.);
#217=EDGE_CURVE($,#181,#180,#158,.T.);
#218=EDGE_CURVE($,#182,#182,#159,.T.);
#219=EDGE_CURVE($,#183,#183,#160,.T.);
#220=EDGE_CURVE($,#184,#185,#60,.T.);
#221=EDGE_CURVE($,#185,#184,#161,.T.);
#222=EDGE_CURVE($,#186,#186,#162,.T.);
#223=EDGE_CURVE($,#187,#187,#163,.T.);
#224=EDGE_CURVE($,#188,#188,#164,.T.);
#225=EDGE_CURVE($,#189,#189,#165,.T.);
#226=EDGE_CURVE($,#190,#190,#166,.T.);
#227=EDGE_CURVE($,#191,#180,#13,.T.);
#228=EDGE_CURVE($,#192,#191,#14,.T.);
#229=EDGE_CURVE($,#193,#192,#15,.T.);
#230=EDGE_CURVE($,#194,#193,#16,.T.);
#231=EDGE_CURVE($,#185,#194,#17,.T.);
#232=EDGE_CURVE($,#181,#184,#18,.T.);
#233=EDGE_CURVE($,#195,#195,#167,.T.);
#234=EDGE_CURVE($,#196,#196,#168,.T.);
#235=EDGE_CURVE($,#197,#197,#169,.T.);
#236=EDGE_CURVE($,#198,#198,#170,.T.);
#237=EDGE_CURVE($,#199,#194,#171,.T.);
#238=EDGE_CURVE($,#200,#199,#19,.T.);
#239=EDGE_CURVE($,#191,#200,#172,.T.);
#240=EDGE_CURVE($,#201,#192,#173,.T.);
#241=EDGE_CURVE($,#200,#202,#20,.T.);
#242=EDGE_CURVE($,#202,#203,#174,.T.);
#243=EDGE_CURVE($,#203,#204,#21,.T.);
#244=EDGE_CURVE($,#204,#205,#22,.T.);
#245=EDGE_CURVE($,#205,#206,#23,.T.);
#246=EDGE_CURVE($,#206,#201,#24,.T.);
#247=EDGE_CURVE($,#207,#199,#25,.T.);
#248=EDGE_CURVE($,#202,#207,#26,.T.);
#249=EDGE_CURVE($,#208,#207,#175,.T.);
#250=EDGE_CURVE($,#203,#208,#27,.T.);
#251=EDGE_CURVE($,#209,#208,#28,.T.);
#252=EDGE_CURVE($,#204,#209,#29,.T.);
#253=EDGE_CURVE($,#210,#209,#30,.T.);
#254=EDGE_CURVE($,#205,#210,#31,.T.);
#255=EDGE_CURVE($,#211,#210,#32,.T.);
#256=EDGE_CURVE($,#206,#211,#33,.T.);
#257=EDGE_CURVE($,#212,#211,#34,.T.);
#258=EDGE_CURVE($,#201,#212,#35,.T.);
#259=EDGE_CURVE($,#193,#212,#176,.T.);
#260=ORIENTED_EDGE($,*,*,#213,.F.);
#261=ORIENTED_EDGE($,*,*,#214,.T.);
#262=ORIENTED_EDGE($,*,*,#215,.F.);
#263=ORIENTED_EDGE($,*,*,#214,.F.);
#264=ORIENTED_EDGE($,*,*,#216,.F.);
#265=ORIENTED_EDGE($,*,*,#217,.F.);
#266=ORIENTED_EDGE($,*,*,#218,.T.);
#267=ORIENTED_EDGE($,*,*,#219,.F.);
#268=ORIENTED_EDGE($,*,*,#218,.F.);
#269=ORIENTED_EDGE($,*,*,#220,.F.);
#270=ORIENTED_EDGE($,*,*,#221,.F.);
#271=ORIENTED_EDGE($,*,*,#222,.T.);
#272=ORIENTED_EDGE($,*,*,#223,.F.);
#273=ORIENTED_EDGE($,*,*,#222,.F.);
#274=ORIENTED_EDGE($,*,*,#224,.F.);
#275=ORIENTED_EDGE($,*,*,#225,.T.);
#276=ORIENTED_EDGE($,*,*,#226,.F.);
#277=ORIENTED_EDGE($,*,*,#225,.F.);
#278=ORIENTED_EDGE($,*,*,#217,.T.);
#279=ORIENTED_EDGE($,*,*,#227,.F.);
#280=ORIENTED_EDGE($,*,*,#228,.F.);
#281=ORIENTED_EDGE($,*,*,#229,.F.);
#282=ORIENTED_EDGE($,*,*,#230,.F.);
#283=ORIENTED_EDGE($,*,*,#231,.F.);
#284=ORIENTED_EDGE($,*,*,#221,.T.);
#285=ORIENTED_EDGE($,*,*,#232,.F.);
#286=ORIENTED_EDGE($,*,*,#224,.T.);
#287=ORIENTED_EDGE($,*,*,#213,.T.);
#288=ORIENTED_EDGE($,*,*,#226,.T.);
#289=ORIENTED_EDGE($,*,*,#233,.F.);
#290=ORIENTED_EDGE($,*,*,#219,.T.);
#291=ORIENTED_EDGE($,*,*,#234,.F.);
#292=ORIENTED_EDGE($,*,*,#215,.T.);
#293=ORIENTED_EDGE($,*,*,#235,.F.);
#294=ORIENTED_EDGE($,*,*,#223,.T.);
#295=ORIENTED_EDGE($,*,*,#236,.F.);
#296=ORIENTED_EDGE($,*,*,#216,.T.);
#297=ORIENTED_EDGE($,*,*,#232,.T.);
#298=ORIENTED_EDGE($,*,*,#220,.T.);
#299=ORIENTED_EDGE($,*,*,#231,.T.);
#300=ORIENTED_EDGE($,*,*,#237,.F.);
#301=ORIENTED_EDGE($,*,*,#238,.F.);
#302=ORIENTED_EDGE($,*,*,#239,.F.);
#303=ORIENTED_EDGE($,*,*,#227,.T.);
#304=ORIENTED_EDGE($,*,*,#240,.T.);
#305=ORIENTED_EDGE($,*,*,#228,.T.);
#306=ORIENTED_EDGE($,*,*,#239,.T.);
#307=ORIENTED_EDGE($,*,*,#241,.T.);
#308=ORIENTED_EDGE($,*,*,#242,.T.);
#309=ORIENTED_EDGE($,*,*,#243,.T.);
#310=ORIENTED_EDGE($,*,*,#244,.T.);
#311=ORIENTED_EDGE($,*,*,#245,.T.);
#312=ORIENTED_EDGE($,*,*,#246,.T.);
#313=ORIENTED_EDGE($,*,*,#238,.T.);
#314=ORIENTED_EDGE($,*,*,#247,.F.);
#315=ORIENTED_EDGE($,*,*,#248,.F.);
#316=ORIENTED_EDGE($,*,*,#241,.F.);
#317=ORIENTED_EDGE($,*,*,#248,.T.);
#318=ORIENTED_EDGE($,*,*,#249,.F.);
#319=ORIENTED_EDGE($,*,*,#250,.F.);
#320=ORIENTED_EDGE($,*,*,#242,.F.);
#321=ORIENTED_EDGE($,*,*,#250,.T.);
#322=ORIENTED_EDGE($,*,*,#251,.F.);
#323=ORIENTED_EDGE($,*,*,#252,.F.);
#324=ORIENTED_EDGE($,*,*,#243,.F.);
#325=ORIENTED_EDGE($,*,*,#252,.T.);
#326=ORIENTED_EDGE($,*,*,#253,.F.);
#327=ORIENTED_EDGE($,*,*,#254,.F.);
#328=ORIENTED_EDGE($,*,*,#244,.F.);
#329=ORIENTED_EDGE($,*,*,#233,.T.);
#330=ORIENTED_EDGE($,*,*,#234,.T.);
#331=ORIENTED_EDGE($,*,*,#235,.T.);
#332=ORIENTED_EDGE($,*,*,#236,.T.);
#333=ORIENTED_EDGE($,*,*,#254,.T.);
#334=ORIENTED_EDGE($,*,*,#255,.F.);
#335=ORIENTED_EDGE($,*,*,#256,.F.);
#336=ORIENTED_EDGE($,*,*,#245,.F.);
#337=ORIENTED_EDGE($,*,*,#256,.T.);
#338=ORIENTED_EDGE($,*,*,#257,.F.);
#339=ORIENTED_EDGE($,*,*,#258,.F.);
#340=ORIENTED_EDGE($,*,*,#246,.F.);
#341=ORIENTED_EDGE($,*,*,#258,.T.);
#342=ORIENTED_EDGE($,*,*,#259,.F.);
#343=ORIENTED_EDGE($,*,*,#229,.T.);
#344=ORIENTED_EDGE($,*,*,#240,.F.);
#345=ORIENTED_EDGE($,*,*,#259,.T.);
#346=ORIENTED_EDGE($,*,*,#257,.T.);
#347=ORIENTED_EDGE($,*,*,#255,.T.);
#348=ORIENTED_EDGE($,*,*,#253,.T.);
#349=ORIENTED_EDGE($,*,*,#251,.T.);
#350=ORIENTED_EDGE($,*,*,#249,.T.);
#351=ORIENTED_EDGE($,*,*,#247,.T.);
#352=ORIENTED_EDGE($,*,*,#237,.T.);
#353=ORIENTED_EDGE($,*,*,#230,.T.);
#354=CYLINDRICAL_SURFACE($,#391,7.5);
#355=CYLINDRICAL_SURFACE($,#396,7.5);
#356=CYLINDRICAL_SURFACE($,#401,7.5);
#357=CYLINDRICAL_SURFACE($,#406,7.5);
#358=CYLINDRICAL_SURFACE($,#412,4.2);
#359=CYLINDRICAL_SURFACE($,#414,4.2);
#360=CYLINDRICAL_SURFACE($,#416,4.2);
#361=CYLINDRICAL_SURFACE($,#418,4.2);
#362=CYLINDRICAL_SURFACE($,#420,10.);
#363=CYLINDRICAL_SURFACE($,#427,5.);
#364=CYLINDRICAL_SURFACE($,#433,5.);
#365=ADVANCED_FACE($,(#96,#73),#354,.F.);
#366=ADVANCED_FACE($,(#74,#75),#61,.T.);
#367=ADVANCED_FACE($,(#97,#76),#355,.F.);
#368=ADVANCED_FACE($,(#77,#78),#62,.T.);
#369=ADVANCED_FACE($,(#98,#79),#356,.F.);
#370=ADVANCED_FACE($,(#80,#81),#63,.T.);
#371=ADVANCED_FACE($,(#99,#82),#357,.F.);
#372=ADVANCED_FACE($,(#83,#84),#64,.T.);
#373=ADVANCED_FACE($,(#100,#85,#86),#65,.T.);
#374=ADVANCED_FACE($,(#101,#87),#358,.F.);
#375=ADVANCED_FACE($,(#102,#88),#359,.F.);
#376=ADVANCED_FACE($,(#103,#89),#360,.F.);
#377=ADVANCED_FACE($,(#104,#90),#361,.F.);
#378=ADVANCED_FACE($,(#105),#362,.F.);
#379=ADVANCED_FACE($,(#106),#66,.F.);
#380=ADVANCED_FACE($,(#107),#67,.T.);
#381=ADVANCED_FACE($,(#108),#363,.T.);
#382=ADVANCED_FACE($,(#109),#68,.T.);
#383=ADVANCED_FACE($,(#110),#69,.T.);
#384=ADVANCED_FACE($,(#91,#92,#93,#94,#95),#70,.T.);
#385=ADVANCED_FACE($,(#111),#71,.T.);
#386=ADVANCED_FACE($,(#112),#364,.T.);
#387=ADVANCED_FACE($,(#113),#72,.T.);
#388=CLOSED_SHELL($,(#365,#366,#367,#368,#369,#370,#371,#372,#373,#374,
#375,#376,#377,#378,#379,#380,#381,#382,#383,#384,#385,#386,#387));
#389=MANIFOLD_SOLID_BREP('Volumenk\X\F6rper4',#388);
#390=AXIS2_PLACEMENT_3D('placement',#551,#436,#437);
#391=AXIS2_PLACEMENT_3D($,#552,#438,#439);
#392=AXIS2_PLACEMENT_3D($,#554,#440,#441);
#393=AXIS2_PLACEMENT_3D($,#556,#442,#443);
#394=AXIS2_PLACEMENT_3D($,#557,#444,#445);
#395=AXIS2_PLACEMENT_3D($,#559,#446,#447);
#396=AXIS2_PLACEMENT_3D($,#560,#448,#449);
#397=AXIS2_PLACEMENT_3D($,#582,#450,#451);
#398=AXIS2_PLACEMENT_3D($,#584,#452,#453);
#399=AXIS2_PLACEMENT_3D($,#585,#454,#455);
#400=AXIS2_PLACEMENT_3D($,#587,#456,#457);
#401=AXIS2_PLACEMENT_3D($,#588,#458,#459);
#402=AXIS2_PLACEMENT_3D($,#610,#460,#461);
#403=AXIS2_PLACEMENT_3D($,#612,#462,#463);
#404=AXIS2_PLACEMENT_3D($,#613,#464,#465);
#405=AXIS2_PLACEMENT_3D($,#615,#466,#467);
#406=AXIS2_PLACEMENT_3D($,#616,#468,#469);
#407=AXIS2_PLACEMENT_3D($,#618,#470,#471);
#408=AXIS2_PLACEMENT_3D($,#620,#472,#473);
#409=AXIS2_PLACEMENT_3D($,#621,#474,#475);
#410=AXIS2_PLACEMENT_3D($,#623,#476,#477);
#411=AXIS2_PLACEMENT_3D($,#624,#478,#479);
#412=AXIS2_PLACEMENT_3D($,#635,#486,#487);
#413=AXIS2_PLACEMENT_3D($,#637,#488,#489);
#414=AXIS2_PLACEMENT_3D($,#638,#490,#491);
#415=AXIS2_PLACEMENT_3D($,#640,#492,#493);
#416=AXIS2_PLACEMENT_3D($,#641,#494,#495);
#417=AXIS2_PLACEMENT_3D($,#643,#496,#497);
#418=AXIS2_PLACEMENT_3D($,#644,#498,#499);
#419=AXIS2_PLACEMENT_3D($,#646,#500,#501);
#420=AXIS2_PLACEMENT_3D($,#647,#502,#503);
#421=AXIS2_PLACEMENT_3D($,#649,#504,#505);
#422=AXIS2_PLACEMENT_3D($,#652,#507,#508);
#423=AXIS2_PLACEMENT_3D($,#653,#509,#510);
#424=AXIS2_PLACEMENT_3D($,#655,#511,#512);
#425=AXIS2_PLACEMENT_3D($,#659,#514,#515);
#426=AXIS2_PLACEMENT_3D($,#667,#520,#521);
#427=AXIS2_PLACEMENT_3D($,#671,#524,#525);
#428=AXIS2_PLACEMENT_3D($,#673,#526,#527);
#429=AXIS2_PLACEMENT_3D($,#675,#529,#530);
#430=AXIS2_PLACEMENT_3D($,#679,#533,#534);
#431=AXIS2_PLACEMENT_3D($,#683,#537,#538);
#432=AXIS2_PLACEMENT_3D($,#687,#541,#542);
#433=AXIS2_PLACEMENT_3D($,#691,#545,#546);
#434=AXIS2_PLACEMENT_3D($,#692,#547,#548);
#435=AXIS2_PLACEMENT_3D($,#693,#549,#550);
#436=DIRECTION('axis',(0.,0.,1.));
#437=DIRECTION('refdir',(1.,0.,0.));
#438=DIRECTION('center_axis',(-1.,0.,0.));
#439=DIRECTION('ref_axis',(0.,0.,1.));
#440=DIRECTION('center_axis',(-1.,0.,0.));
#441=DIRECTION('ref_axis',(0.,0.,1.));
#442=DIRECTION('center_axis',(-1.,0.,0.));
#443=DIRECTION('ref_axis',(0.,0.,1.));
#444=DIRECTION('center_axis',(1.,0.,0.));
#445=DIRECTION('ref_axis',(0.,0.,-1.));
#446=DIRECTION('center_axis',(1.,0.,0.));
#447=DIRECTION('ref_axis',(0.,0.,1.));
#448=DIRECTION('center_axis',(-1.,0.,0.));
#449=DIRECTION('ref_axis',(0.,0.,1.));
#450=DIRECTION('center_axis',(-1.,0.,0.));
#451=DIRECTION('ref_axis',(0.,0.,1.));
#452=DIRECTION('center_axis',(-1.,0.,0.));
#453=DIRECTION('ref_axis',(0.,0.,1.));
#454=DIRECTION('center_axis',(1.,0.,0.));
#455=DIRECTION('ref_axis',(0.,0.,-1.));
#456=DIRECTION('center_axis',(1.,0.,0.));
#457=DIRECTION('ref_axis',(0.,0.,1.));
#458=DIRECTION('center_axis',(-1.,0.,0.));
#459=DIRECTION('ref_axis',(0.,0.,1.));
#460=DIRECTION('center_axis',(-1.,0.,0.));
#461=DIRECTION('ref_axis',(0.,0.,1.));
#462=DIRECTION('center_axis',(-1.,0.,0.));
#463=DIRECTION('ref_axis',(0.,0.,1.));
#464=DIRECTION('center_axis',(1.,0.,0.));
#465=DIRECTION('ref_axis',(0.,0.,-1.));
#466=DIRECTION('center_axis',(1.,0.,0.));
#467=DIRECTION('ref_axis',(0.,0.,1.));
#468=DIRECTION('center_axis',(-1.,0.,0.));
#469=DIRECTION('ref_axis',(0.,0.,1.));
#470=DIRECTION('center_axis',(-1.,0.,0.));
#471=DIRECTION('ref_axis',(0.,0.,1.));
#472=DIRECTION('center_axis',(-1.,0.,0.));
#473=DIRECTION('ref_axis',(0.,0.,1.));
#474=DIRECTION('center_axis',(1.,0.,0.));
#475=DIRECTION('ref_axis',(0.,0.,-1.));
#476=DIRECTION('center_axis',(1.,0.,0.));
#477=DIRECTION('ref_axis',(0.,0.,1.));
#478=DIRECTION('center_axis',(1.,0.,0.));
#479=DIRECTION('ref_axis',(0.,1.,0.));
#480=DIRECTION($,(0.,0.,1.));
#481=DIRECTION($,(0.,-1.,0.));
#482=DIRECTION($,(0.,0.,-1.));
#483=DIRECTION($,(0.,1.,0.));
#484=DIRECTION($,(0.,0.,1.));
#485=DIRECTION($,(0.,0.,1.));
#486=DIRECTION('center_axis',(-1.,0.,0.));
#487=DIRECTION('ref_axis',(0.,0.,1.));
#488=DIRECTION('center_axis',(1.,0.,0.));
#489=DIRECTION('ref_axis',(0.,0.,1.));
#490=DIRECTION('center_axis',(-1.,0.,0.));
#491=DIRECTION('ref_axis',(0.,0.,1.));
#492=DIRECTION('center_axis',(1.,0.,0.));
#493=DIRECTION('ref_axis',(0.,0.,1.));
#494=DIRECTION('center_axis',(-1.,0.,0.));
#495=DIRECTION('ref_axis',(0.,0.,1.));
#496=DIRECTION('center_axis',(1.,0.,0.));
#497=DIRECTION('ref_axis',(0.,0.,1.));
#498=DIRECTION('center_axis',(-1.,0.,0.));
#499=DIRECTION('ref_axis',(0.,0.,1.));
#500=DIRECTION('center_axis',(1.,0.,0.));
#501=DIRECTION('ref_axis',(0.,0.,1.));
#502=DIRECTION('center_axis',(0.,0.,1.));
#503=DIRECTION('ref_axis',(1.,0.,0.));
#504=DIRECTION('center_axis',(0.,0.,-1.));
#505=DIRECTION('ref_axis',(1.,0.,0.));
#506=DIRECTION($,(0.,0.,1.));
#507=DIRECTION('center_axis',(0.,0.,1.));
#508=DIRECTION('ref_axis',(1.,0.,0.));
#509=DIRECTION('center_axis',(0.,0.,1.));
#510=DIRECTION('ref_axis',(1.,0.,0.));
#511=DIRECTION('center_axis',(0.,0.,-1.));
#512=DIRECTION('ref_axis',(1.,0.,0.));
#513=DIRECTION($,(1.,3.89551938464967E-017,0.));
#514=DIRECTION('center_axis',(0.,0.,-1.));
#515=DIRECTION('ref_axis',(1.,0.,0.));
#516=DIRECTION($,(0.,-1.,0.));
#517=DIRECTION($,(-1.,0.,0.));
#518=DIRECTION($,(0.,1.,0.));
#519=DIRECTION($,(1.,0.,0.));
#520=DIRECTION('center_axis',(-3.89551938464967E-017,1.,0.));
#521=DIRECTION('ref_axis',(-1.,0.,0.));
#522=DIRECTION($,(-1.,-3.89551938464967E-017,0.));
#523=DIRECTION($,(0.,0.,1.));
#524=DIRECTION('center_axis',(0.,0.,1.));
#525=DIRECTION('ref_axis',(1.,0.,0.));
#526=DIRECTION('center_axis',(0.,0.,1.));
#527=DIRECTION('ref_axis',(1.,0.,0.));
#528=DIRECTION($,(0.,0.,1.));
#529=DIRECTION('center_axis',(1.,0.,0.));
#530=DIRECTION('ref_axis',(0.,1.,0.));
#531=DIRECTION($,(0.,1.,0.));
#532=DIRECTION($,(0.,0.,1.));
#533=DIRECTION('center_axis',(0.,-1.,0.));
#534=DIRECTION('ref_axis',(1.,0.,0.));
#535=DIRECTION($,(1.,0.,0.));
#536=DIRECTION($,(0.,0.,1.));
#537=DIRECTION('center_axis',(-1.,0.,0.));
#538=DIRECTION('ref_axis',(0.,-1.,0.));
#539=DIRECTION($,(0.,-1.,0.));
#540=DIRECTION($,(0.,0.,1.));
#541=DIRECTION('center_axis',(0.,1.,0.));
#542=DIRECTION('ref_axis',(-1.,0.,0.));
#543=DIRECTION($,(-1.,0.,0.));
#544=DIRECTION($,(0.,0.,1.));
#545=DIRECTION('center_axis',(0.,0.,1.));
#546=DIRECTION('ref_axis',(1.,0.,0.));
#547=DIRECTION('center_axis',(0.,0.,1.));
#548=DIRECTION('ref_axis',(1.,0.,0.));
#549=DIRECTION('center_axis',(0.,0.,1.));
#550=DIRECTION('ref_axis',(1.,0.,0.));
#551=CARTESIAN_POINT('',(0.,0.,0.));
#552=CARTESIAN_POINT('Origin',(8.,60.,-20.));
#553=CARTESIAN_POINT('',(8.,60.,-27.5));
#554=CARTESIAN_POINT('Origin',(8.,60.,-20.));
#555=CARTESIAN_POINT('',(7.,60.,-27.5));
#556=CARTESIAN_POINT('Origin',(7.,60.,-20.));
#557=CARTESIAN_POINT('Origin',(7.,60.,-20.));
#558=CARTESIAN_POINT('',(7.,60.,-24.2));
#559=CARTESIAN_POINT('Origin',(7.00000000000001,60.,-20.));
#560=CARTESIAN_POINT('Origin',(8.,20.,-20.));
#561=CARTESIAN_POINT('',(8.,18.,-27.2284161474005));
#562=CARTESIAN_POINT('',(8.,18.,-12.7715838525995));
#563=CARTESIAN_POINT('Ctrl Pts',(8.,18.,-27.2284161474005));
#564=CARTESIAN_POINT('Ctrl Pts',(8.,17.7162687579364,-27.149911745806));
#565=CARTESIAN_POINT('Ctrl Pts',(8.01215855580169,17.4358378434028,-27.0542387136809));
#566=CARTESIAN_POINT('Ctrl Pts',(8.11205904315017,16.2472240113355,-26.5684312317218));
#567=CARTESIAN_POINT('Ctrl Pts',(8.31549842003906,15.4133341079441,-26.004422958919));
#568=CARTESIAN_POINT('Ctrl Pts',(8.77336991137546,14.0774592287903,-24.6987425443472));
#569=CARTESIAN_POINT('Ctrl Pts',(9.06290066638402,13.4907803481751,-23.8599018024853));
#570=CARTESIAN_POINT('Ctrl Pts',(9.50674911662902,12.7019319883473,-22.0017368232139));
#571=CARTESIAN_POINT('Ctrl Pts',(9.64835345575498,12.5,-20.979298060868));
#572=CARTESIAN_POINT('Ctrl Pts',(9.64835345575498,12.5,-20.));
#573=CARTESIAN_POINT('Ctrl Pts',(9.64835345575498,12.5,-19.0207019391319));
#574=CARTESIAN_POINT('Ctrl Pts',(9.50674911662902,12.7019319883474,-17.9982631767861));
#575=CARTESIAN_POINT('Ctrl Pts',(9.06290066638402,13.4907803481751,-16.1400981975147));
#576=CARTESIAN_POINT('Ctrl Pts',(8.77336991137546,14.0774592287903,-15.3012574556528));
#577=CARTESIAN_POINT('Ctrl Pts',(8.31549842003906,15.4133341079441,-13.995577041081));
#578=CARTESIAN_POINT('Ctrl Pts',(8.11205904315017,16.2472240113355,-13.4315687682781));
#579=CARTESIAN_POINT('Ctrl Pts',(8.01215855580169,17.4358378434028,-12.9457612863191));
#580=CARTESIAN_POINT('Ctrl Pts',(8.,17.7162687579364,-12.8500882541939));
#581=CARTESIAN_POINT('Ctrl Pts',(8.,18.,-12.7715838525995));
#582=CARTESIAN_POINT('Origin',(8.,20.,-20.));
#583=CARTESIAN_POINT('',(7.,20.,-27.5));
#584=CARTESIAN_POINT('Origin',(7.,20.,-20.));
#585=CARTESIAN_POINT('Origin',(7.,20.,-20.));
#586=CARTESIAN_POINT('',(7.00000000000001,20.,-24.2));
#587=CARTESIAN_POINT('Origin',(7.00000000000001,20.,-20.));
#588=CARTESIAN_POINT('Origin',(8.,20.,20.));
#589=CARTESIAN_POINT('',(8.,18.,12.7715838525995));
#590=CARTESIAN_POINT('',(8.,18.,27.2284161474005));
#591=CARTESIAN_POINT('Ctrl Pts',(8.,18.,12.7715838525995));
#592=CARTESIAN_POINT('Ctrl Pts',(8.,17.7162687579364,12.850088254194));
#593=CARTESIAN_POINT('Ctrl Pts',(8.01215855580169,17.4358378434028,12.9457612863191));
#594=CARTESIAN_POINT('Ctrl Pts',(8.11205904315017,16.2472240113355,13.4315687682781));
#595=CARTESIAN_POINT('Ctrl Pts',(8.31549842003906,15.4133341079441,13.995577041081));
#596=CARTESIAN_POINT('Ctrl Pts',(8.77336991137546,14.0774592287903,15.3012574556528));
#597=CARTESIAN_POINT('Ctrl Pts',(9.06290066638402,13.4907803481751,16.1400981975147));
#598=CARTESIAN_POINT('Ctrl Pts',(9.50674911662902,12.7019319883474,17.9982631767861));
#599=CARTESIAN_POINT('Ctrl Pts',(9.64835345575498,12.5,19.020701939132));
#600=CARTESIAN_POINT('Ctrl Pts',(9.64835345575498,12.5,20.));
#601=CARTESIAN_POINT('Ctrl Pts',(9.64835345575498,12.5,20.9792980608681));
#602=CARTESIAN_POINT('Ctrl Pts',(9.50674911662902,12.7019319883474,22.0017368232139));
#603=CARTESIAN_POINT('Ctrl Pts',(9.06290066638402,13.4907803481751,23.8599018024853));
#604=CARTESIAN_POINT('Ctrl Pts',(8.77336991137546,14.0774592287903,24.6987425443472));
#605=CARTESIAN_POINT('Ctrl Pts',(8.31549842003906,15.4133341079441,26.004422958919));
#606=CARTESIAN_POINT('Ctrl Pts',(8.11205904315017,16.2472240113355,26.5684312317219));
#607=CARTESIAN_POINT('Ctrl Pts',(8.01215855580169,17.4358378434028,27.0542387136809));
#608=CARTESIAN_POINT('Ctrl Pts',(8.,17.7162687579364,27.1499117458061));
#609=CARTESIAN_POINT('Ctrl Pts',(8.,18.,27.2284161474005));
#610=CARTESIAN_POINT('Origin',(8.,20.,20.));
#611=CARTESIAN_POINT('',(7.,20.,12.5));
#612=CARTESIAN_POINT('Origin',(7.,20.,20.));
#613=CARTESIAN_POINT('Origin',(7.,20.,20.));
#614=CARTESIAN_POINT('',(7.00000000000001,20.,15.8));
#615=CARTESIAN_POINT('Origin',(7.00000000000001,20.,20.));
#616=CARTESIAN_POINT('Origin',(8.,60.,20.));
#617=CARTESIAN_POINT('',(8.,60.,12.5));
#618=CARTESIAN_POINT('Origin',(8.,60.,20.));
#619=CARTESIAN_POINT('',(7.,60.,12.5));
#620=CARTESIAN_POINT('Origin',(7.,60.,20.));
#621=CARTESIAN_POINT('Origin',(7.,60.,20.));
#622=CARTESIAN_POINT('',(7.,60.,15.8));
#623=CARTESIAN_POINT('Origin',(7.00000000000001,60.,20.));
#624=CARTESIAN_POINT('Origin',(8.,18.,0.));
#625=CARTESIAN_POINT('',(8.,18.,-40.));
#626=CARTESIAN_POINT($,(8.,18.,0.));
#627=CARTESIAN_POINT('',(8.,75.,-40.));
#628=CARTESIAN_POINT($,(8.,18.,-40.));
#629=CARTESIAN_POINT('',(8.,75.,40.));
#630=CARTESIAN_POINT($,(8.,75.,0.));
#631=CARTESIAN_POINT('',(8.,18.,40.));
#632=CARTESIAN_POINT($,(8.,18.,40.));
#633=CARTESIAN_POINT($,(8.,18.,0.));
#634=CARTESIAN_POINT($,(8.,18.,0.));
#635=CARTESIAN_POINT('Origin',(138.56406460551,60.,20.));
#636=CARTESIAN_POINT('',(0.,60.,24.2));
#637=CARTESIAN_POINT('Origin',(0.,60.,20.));
#638=CARTESIAN_POINT('Origin',(138.56406460551,20.,-20.));
#639=CARTESIAN_POINT('',(0.,20.,-15.8));
#640=CARTESIAN_POINT('Origin',(0.,20.,-20.));
#641=CARTESIAN_POINT('Origin',(138.56406460551,60.,-20.));
#642=CARTESIAN_POINT('',(0.,60.,-15.8));
#643=CARTESIAN_POINT('Origin',(0.,60.,-20.));
#644=CARTESIAN_POINT('Origin',(138.56406460551,20.,20.));
#645=CARTESIAN_POINT('',(0.,20.,24.2));
#646=CARTESIAN_POINT('Origin',(0.,20.,20.));
#647=CARTESIAN_POINT('Origin',(18.,18.,0.));
#648=CARTESIAN_POINT('',(18.,8.,40.));
#649=CARTESIAN_POINT('Origin',(18.,18.,40.));
#650=CARTESIAN_POINT('',(18.,8.,-40.));
#651=CARTESIAN_POINT($,(18.,8.,0.));
#652=CARTESIAN_POINT('Origin',(18.,18.,-40.));
#653=CARTESIAN_POINT('Origin',(23.6690254855579,23.6690254855579,-40.));
#654=CARTESIAN_POINT('',(3.,80.,-40.));
#655=CARTESIAN_POINT('Origin',(3.,75.,-40.));
#656=CARTESIAN_POINT('',(75.,8.00000000000001,-40.));
#657=CARTESIAN_POINT($,(75.,8.,-40.));
#658=CARTESIAN_POINT('',(80.,3.,-40.));
#659=CARTESIAN_POINT('Origin',(75.,3.,-40.));
#660=CARTESIAN_POINT('',(80.,0.,-40.));
#661=CARTESIAN_POINT($,(80.,0.,-40.));
#662=CARTESIAN_POINT('',(0.,0.,-40.));
#663=CARTESIAN_POINT($,(0.,0.,-40.));
#664=CARTESIAN_POINT('',(0.,80.,-40.));
#665=CARTESIAN_POINT($,(0.,80.,-40.));
#666=CARTESIAN_POINT($,(3.,80.,-40.));
#667=CARTESIAN_POINT('Origin',(75.,8.,0.));
#668=CARTESIAN_POINT('',(75.,8.00000000000001,40.));
#669=CARTESIAN_POINT($,(75.,8.,40.));
#670=CARTESIAN_POINT($,(75.,8.,0.));
#671=CARTESIAN_POINT('Origin',(75.,3.,0.));
#672=CARTESIAN_POINT('',(80.,3.,40.));
#673=CARTESIAN_POINT('Origin',(75.,3.,40.));
#674=CARTESIAN_POINT($,(80.,3.,0.));
#675=CARTESIAN_POINT('Origin',(80.,0.,0.));
#676=CARTESIAN_POINT('',(80.,0.,40.));
#677=CARTESIAN_POINT($,(80.,0.,40.));
#678=CARTESIAN_POINT($,(80.,0.,0.));
#679=CARTESIAN_POINT('Origin',(0.,0.,0.));
#680=CARTESIAN_POINT('',(0.,0.,40.));
#681=CARTESIAN_POINT($,(0.,0.,40.));
#682=CARTESIAN_POINT($,(0.,0.,0.));
#683=CARTESIAN_POINT('Origin',(0.,80.,0.));
#684=CARTESIAN_POINT('',(0.,80.,40.));
#685=CARTESIAN_POINT($,(0.,80.,40.));
#686=CARTESIAN_POINT($,(0.,80.,0.));
#687=CARTESIAN_POINT('Origin',(3.,80.,0.));
#688=CARTESIAN_POINT('',(3.,80.,40.));
#689=CARTESIAN_POINT($,(3.,80.,40.));
#690=CARTESIAN_POINT($,(3.,80.,0.));
#691=CARTESIAN_POINT('Origin',(3.,75.,0.));
#692=CARTESIAN_POINT('Origin',(3.,75.,40.));
#693=CARTESIAN_POINT('Origin',(23.6690254855579,23.6690254855579,40.));
#694=UNCERTAINTY_MEASURE_WITH_UNIT(LENGTH_MEASURE(0.01),#696,
'DISTANCE_ACCURACY_VALUE',
'Maximum model space distance between geometric entities at asserted c
onnectivities');
#695=(
GEOMETRIC_REPRESENTATION_CONTEXT(3)
GLOBAL_UNCERTAINTY_ASSIGNED_CONTEXT((#694))
GLOBAL_UNIT_ASSIGNED_CONTEXT((#696,#699,#697))
REPRESENTATION_CONTEXT('','3D')
);
#696=(
LENGTH_UNIT()
NAMED_UNIT(*)
SI_UNIT(.MILLI.,.METRE.)
);
#697=(
NAMED_UNIT(*)
SI_UNIT($,.STERADIAN.)
SOLID_ANGLE_UNIT()
);
#698=DIMENSIONAL_EXPONENTS(0.,0.,0.,0.,0.,0.,0.);
#699=(
CONVERSION_BASED_UNIT('degree',#701)
NAMED_UNIT(#698)
PLANE_ANGLE_UNIT()
);
#700=(
NAMED_UNIT(*)
PLANE_ANGLE_UNIT()
SI_UNIT($,.RADIAN.)
);
#701=PLANE_ANGLE_MEASURE_WITH_UNIT(PLANE_ANGLE_MEASURE(0.01745329252),#700);
#702=SHAPE_DEFINITION_REPRESENTATION(#703,#704);
#703=PRODUCT_DEFINITION_SHAPE('',$,#706);
#704=SHAPE_REPRESENTATION('',(#390),#695);
#705=PRODUCT_DEFINITION_CONTEXT('3D Mechanical Parts',#709,'design');
#706=PRODUCT_DEFINITION('13119_KriTec_Anschwei\X\DFwinkel_80x80x8_Stah
l','13119_KriTec_Anschwei\X\DFwinkel_80x80x8_Stahl',#707,#705);
#707=PRODUCT_DEFINITION_FORMATION('',$,#711);
#708=APPLICATION_PROTOCOL_DEFINITION('international standard',
'automotive_design',2009,#709);
#709=APPLICATION_CONTEXT(
'Core Data for Automotive Mechanical Design Process');
#710=PRODUCT_CONTEXT('3D Mechanical Parts',#709,'mechanical');
#711=PRODUCT('13119_KriTec_Anschwei\X\DFwinkel_80x80x8_Stahl',
'13119_KriTec_Anschwei\X\DFwinkel_80x80x8_Stahl',$,(#710));
#712=PRESENTATION_STYLE_ASSIGNMENT((#713));
#713=SURFACE_STYLE_USAGE(.BOTH.,#714);
#714=SURFACE_SIDE_STYLE($,(#715));
#715=SURFACE_STYLE_FILL_AREA(#716);
#716=FILL_AREA_STYLE($,(#717));
#717=FILL_AREA_STYLE_COLOUR($,#718);
#718=COLOUR_RGB('',0.831372549019608,0.831372549019608,0.831372549019608);
ENDSEC;
END-ISO-10303-21;
