ISO-10303-21;
HEADER;
/* Generated by software containing ST-Developer
 * from STEP Tools, Inc. (www.steptools.com) 
 */

FILE_DESCRIPTION(
/* description */ ('KriTec Parabelpuffer \X\D830x36 M8 mit Innengewind
e'),
/* implementation_level */ '2;1');

FILE_NAME(
/* name */ 
'C:\\Arbeitsordner\\Designs\\Kuhlemann\\neuteile\\12170 Parabelpuffer 
D30x36 M8 mit Innengewinde.stp',
/* time_stamp */ '2019-06-05T10:02:21+02:00',
/* author */ ('Nell'),
/* organization */ (''),
/* preprocessor_version */ 'ST-DEVELOPER v17',
/* originating_system */ 'Autodesk Inventor 2018',
/* authorisation */ '');

FILE_SCHEMA (('AUTOMOTIVE_DESIGN { 1 0 10303 214 3 1 1 }'));
ENDSEC;

DATA;
#10=MECHANICAL_DESIGN_GEOMETRIC_PRESENTATION_REPRESENTATION('',(#27,#28,
#29,#30,#31,#32,#33,#34),#291);
#11=SHAPE_REPRESENTATION_RELATIONSHIP('SRR','None',#298,#12);
#12=ADVANCED_BREP_SHAPE_REPRESENTATION('',(#13),#290);
#13=MANIFOLD_SOLID_BREP('1',#127);
#14=FACE_BOUND('',#50,.T.);
#15=FACE_BOUND('',#52,.T.);
#16=CONICAL_SURFACE('',#158,3.6225,0.785398163397448);
#17=(
BOUNDED_SURFACE()
B_SPLINE_SURFACE(2,2,((#213,#214,#215,#216,#217,#218,#219,#220,#221),(#222,
#223,#224,#225,#226,#227,#228,#229,#230),(#231,#232,#233,#234,#235,#236,
#237,#238,#239)),.UNSPECIFIED.,.F.,.T.,.F.)
B_SPLINE_SURFACE_WITH_KNOTS((3,3),(3,2,2,2,3),(-0.0802078633563114,4.78567926026367E-11),
(-3.14159265358979,-1.5707963267949,0.,1.5707963267949,3.14159265358979),
 .UNSPECIFIED.)
GEOMETRIC_REPRESENTATION_ITEM()
RATIONAL_B_SPLINE_SURFACE(((1.,0.707106781186548,1.,0.707106781186548,1.,
0.707106781186548,1.,0.707106781186548,1.),(0.999195945104742,0.706538228517664,
0.999195945104742,0.706538228517664,0.999195945104742,0.706538228517664,
0.999195945104742,0.706538228517664,0.999195945104742),(1.,0.707106781186548,
1.,0.707106781186548,1.,0.707106781186548,1.,0.707106781186548,1.)))
REPRESENTATION_ITEM('')
SURFACE()
);
#18=(
BOUNDED_SURFACE()
B_SPLINE_SURFACE(2,2,((#249,#250,#251,#252,#253,#254,#255,#256,#257),(#258,
#259,#260,#261,#262,#263,#264,#265,#266),(#267,#268,#269,#270,#271,#272,
#273,#274,#275)),.UNSPECIFIED.,.F.,.T.,.F.)
B_SPLINE_SURFACE_WITH_KNOTS((3,3),(3,2,2,2,3),(-0.688428999544114,-0.0802078628961563),
(-3.14159265358979,-1.5707963267949,0.,1.5707963267949,3.14159265358979),
 .UNSPECIFIED.)
GEOMETRIC_REPRESENTATION_ITEM()
RATIONAL_B_SPLINE_SURFACE(((1.,0.707106781186548,1.,0.707106781186548,1.,
0.707106781186548,1.,0.707106781186548,1.),(0.954113665505882,0.674660242901963,
0.954113665505882,0.674660242901963,0.954113665505882,0.674660242901963,
0.954113665505882,0.674660242901963,0.954113665505882),(1.,0.707106781186548,
1.,0.707106781186548,1.,0.707106781186548,1.,0.707106781186548,1.)))
REPRESENTATION_ITEM('')
SURFACE()
);
#19=LINE('',#211,#22);
#20=LINE('',#282,#23);
#21=LINE('',#285,#24);
#22=VECTOR('',#174,15.);
#23=VECTOR('',#193,3.6225);
#24=VECTOR('',#198,3.245);
#25=CYLINDRICAL_SURFACE('',#149,15.);
#26=CYLINDRICAL_SURFACE('',#161,3.245);
#27=STYLED_ITEM('',(#309),#120);
#28=STYLED_ITEM('',(#309),#121);
#29=STYLED_ITEM('',(#309),#122);
#30=STYLED_ITEM('',(#310),#123);
#31=STYLED_ITEM('',(#311),#124);
#32=STYLED_ITEM('',(#309),#125);
#33=STYLED_ITEM('',(#309),#126);
#34=STYLED_ITEM('',(#308),#13);
#35=FACE_OUTER_BOUND('',#43,.T.);
#36=FACE_OUTER_BOUND('',#44,.T.);
#37=FACE_OUTER_BOUND('',#45,.T.);
#38=FACE_OUTER_BOUND('',#46,.T.);
#39=FACE_OUTER_BOUND('',#47,.T.);
#40=FACE_OUTER_BOUND('',#48,.T.);
#41=FACE_OUTER_BOUND('',#49,.T.);
#42=FACE_OUTER_BOUND('',#51,.T.);
#43=EDGE_LOOP('',(#88));
#44=EDGE_LOOP('',(#89,#90,#91,#92));
#45=EDGE_LOOP('',(#93,#94,#95,#96,#97,#98));
#46=EDGE_LOOP('',(#99,#100,#101,#102));
#47=EDGE_LOOP('',(#103,#104,#105,#106));
#48=EDGE_LOOP('',(#107,#108,#109,#110));
#49=EDGE_LOOP('',(#111));
#50=EDGE_LOOP('',(#112,#113));
#51=EDGE_LOOP('',(#114));
#52=EDGE_LOOP('',(#115));
#53=CIRCLE('',#148,3.245);
#54=CIRCLE('',#150,15.);
#55=CIRCLE('',#151,15.);
#56=CIRCLE('',#152,13.5000000052669);
#57=CIRCLE('',#153,13.5000000052669);
#58=CIRCLE('',#154,8.58476071531783);
#59=CIRCLE('',#155,13.4724006238201);
#60=CIRCLE('',#156,13.4724006238201);
#61=CIRCLE('',#157,59.99999999569);
#62=CIRCLE('',#159,3.245);
#63=CIRCLE('',#160,4.);
#64=VERTEX_POINT('',#205);
#65=VERTEX_POINT('',#208);
#66=VERTEX_POINT('',#210);
#67=VERTEX_POINT('',#240);
#68=VERTEX_POINT('',#241);
#69=VERTEX_POINT('',#244);
#70=VERTEX_POINT('',#246);
#71=VERTEX_POINT('',#276);
#72=VERTEX_POINT('',#279);
#73=VERTEX_POINT('',#281);
#74=EDGE_CURVE('',#64,#64,#53,.T.);
#75=EDGE_CURVE('',#65,#65,#54,.T.);
#76=EDGE_CURVE('',#65,#66,#19,.T.);
#77=EDGE_CURVE('',#66,#66,#55,.T.);
#78=EDGE_CURVE('',#67,#68,#56,.T.);
#79=EDGE_CURVE('',#68,#67,#57,.T.);
#80=EDGE_CURVE('',#68,#69,#58,.T.);
#81=EDGE_CURVE('',#69,#70,#59,.T.);
#82=EDGE_CURVE('',#70,#69,#60,.T.);
#83=EDGE_CURVE('',#69,#71,#61,.T.);
#84=EDGE_CURVE('',#72,#72,#62,.T.);
#85=EDGE_CURVE('',#72,#73,#20,.T.);
#86=EDGE_CURVE('',#73,#73,#63,.T.);
#87=EDGE_CURVE('',#72,#64,#21,.T.);
#88=ORIENTED_EDGE('',*,*,#74,.F.);
#89=ORIENTED_EDGE('',*,*,#75,.T.);
#90=ORIENTED_EDGE('',*,*,#76,.T.);
#91=ORIENTED_EDGE('',*,*,#77,.F.);
#92=ORIENTED_EDGE('',*,*,#76,.F.);
#93=ORIENTED_EDGE('',*,*,#78,.F.);
#94=ORIENTED_EDGE('',*,*,#79,.F.);
#95=ORIENTED_EDGE('',*,*,#80,.T.);
#96=ORIENTED_EDGE('',*,*,#81,.T.);
#97=ORIENTED_EDGE('',*,*,#82,.T.);
#98=ORIENTED_EDGE('',*,*,#80,.F.);
#99=ORIENTED_EDGE('',*,*,#82,.F.);
#100=ORIENTED_EDGE('',*,*,#81,.F.);
#101=ORIENTED_EDGE('',*,*,#83,.T.);
#102=ORIENTED_EDGE('',*,*,#83,.F.);
#103=ORIENTED_EDGE('',*,*,#84,.F.);
#104=ORIENTED_EDGE('',*,*,#85,.T.);
#105=ORIENTED_EDGE('',*,*,#86,.F.);
#106=ORIENTED_EDGE('',*,*,#85,.F.);
#107=ORIENTED_EDGE('',*,*,#84,.T.);
#108=ORIENTED_EDGE('',*,*,#87,.T.);
#109=ORIENTED_EDGE('',*,*,#74,.T.);
#110=ORIENTED_EDGE('',*,*,#87,.F.);
#111=ORIENTED_EDGE('',*,*,#75,.F.);
#112=ORIENTED_EDGE('',*,*,#78,.T.);
#113=ORIENTED_EDGE('',*,*,#79,.T.);
#114=ORIENTED_EDGE('',*,*,#77,.T.);
#115=ORIENTED_EDGE('',*,*,#86,.T.);
#116=PLANE('',#147);
#117=PLANE('',#162);
#118=PLANE('',#163);
#119=ADVANCED_FACE('',(#35),#116,.T.);
#120=ADVANCED_FACE('',(#36),#25,.T.);
#121=ADVANCED_FACE('',(#37),#17,.F.);
#122=ADVANCED_FACE('',(#38),#18,.F.);
#123=ADVANCED_FACE('',(#39),#16,.F.);
#124=ADVANCED_FACE('',(#40),#26,.F.);
#125=ADVANCED_FACE('',(#41,#14),#117,.T.);
#126=ADVANCED_FACE('',(#42,#15),#118,.T.);
#127=CLOSED_SHELL('',(#119,#120,#121,#122,#123,#124,#125,#126));
#128=DERIVED_UNIT_ELEMENT(#130,1.);
#129=DERIVED_UNIT_ELEMENT(#293,3.);
#130=(
MASS_UNIT()
NAMED_UNIT(*)
SI_UNIT($,.GRAM.)
);
#131=DERIVED_UNIT((#128,#129));
#132=MEASURE_REPRESENTATION_ITEM('density measure',
POSITIVE_RATIO_MEASURE(1.),#131);
#133=PROPERTY_DEFINITION_REPRESENTATION(#138,#135);
#134=PROPERTY_DEFINITION_REPRESENTATION(#139,#136);
#135=REPRESENTATION('material name',(#137),#290);
#136=REPRESENTATION('density',(#132),#290);
#137=DESCRIPTIVE_REPRESENTATION_ITEM('Allgemein','Allgemein');
#138=PROPERTY_DEFINITION('material property','material name',#300);
#139=PROPERTY_DEFINITION('material property','density of part',#300);
#140=DATE_TIME_ROLE('creation_date');
#141=APPLIED_DATE_AND_TIME_ASSIGNMENT(#142,#140,(#300));
#142=DATE_AND_TIME(#143,#144);
#143=CALENDAR_DATE(2012,8,3);
#144=LOCAL_TIME(14,9,39.,#145);
#145=COORDINATED_UNIVERSAL_TIME_OFFSET(0,0,.BEHIND.);
#146=AXIS2_PLACEMENT_3D('placement',#203,#164,#165);
#147=AXIS2_PLACEMENT_3D('',#204,#166,#167);
#148=AXIS2_PLACEMENT_3D('',#206,#168,#169);
#149=AXIS2_PLACEMENT_3D('',#207,#170,#171);
#150=AXIS2_PLACEMENT_3D('',#209,#172,#173);
#151=AXIS2_PLACEMENT_3D('',#212,#175,#176);
#152=AXIS2_PLACEMENT_3D('',#242,#177,#178);
#153=AXIS2_PLACEMENT_3D('',#243,#179,#180);
#154=AXIS2_PLACEMENT_3D('',#245,#181,#182);
#155=AXIS2_PLACEMENT_3D('',#247,#183,#184);
#156=AXIS2_PLACEMENT_3D('',#248,#185,#186);
#157=AXIS2_PLACEMENT_3D('',#277,#187,#188);
#158=AXIS2_PLACEMENT_3D('',#278,#189,#190);
#159=AXIS2_PLACEMENT_3D('',#280,#191,#192);
#160=AXIS2_PLACEMENT_3D('',#283,#194,#195);
#161=AXIS2_PLACEMENT_3D('',#284,#196,#197);
#162=AXIS2_PLACEMENT_3D('',#286,#199,#200);
#163=AXIS2_PLACEMENT_3D('',#287,#201,#202);
#164=DIRECTION('axis',(0.,0.,1.));
#165=DIRECTION('refdir',(1.,0.,0.));
#166=DIRECTION('center_axis',(0.,0.,1.));
#167=DIRECTION('ref_axis',(1.,0.,0.));
#168=DIRECTION('center_axis',(0.,0.,-1.));
#169=DIRECTION('ref_axis',(1.,0.,0.));
#170=DIRECTION('center_axis',(0.,0.,-1.));
#171=DIRECTION('ref_axis',(1.,0.,0.));
#172=DIRECTION('center_axis',(0.,0.,1.));
#173=DIRECTION('ref_axis',(1.,0.,0.));
#174=DIRECTION('',(0.,0.,1.));
#175=DIRECTION('center_axis',(0.,0.,1.));
#176=DIRECTION('ref_axis',(1.,0.,0.));
#177=DIRECTION('center_axis',(0.,0.,1.));
#178=DIRECTION('ref_axis',(1.,0.,0.));
#179=DIRECTION('center_axis',(0.,0.,1.));
#180=DIRECTION('ref_axis',(1.,0.,0.));
#181=DIRECTION('center_axis',(1.22464378586852E-16,-1.,9.70404960428942E-12));
#182=DIRECTION('ref_axis',(-1.,-1.2246467991473E-16,-3.10517660845824E-11));
#183=DIRECTION('center_axis',(0.,0.,1.));
#184=DIRECTION('ref_axis',(1.,0.,0.));
#185=DIRECTION('center_axis',(0.,0.,1.));
#186=DIRECTION('ref_axis',(1.,0.,0.));
#187=DIRECTION('center_axis',(1.22464679914735E-16,-1.,-2.26966292686774E-16));
#188=DIRECTION('ref_axis',(-1.,-1.22464679914735E-16,6.0932983473336E-16));
#189=DIRECTION('center_axis',(0.,0.,1.));
#190=DIRECTION('ref_axis',(1.,0.,0.));
#191=DIRECTION('center_axis',(0.,0.,1.));
#192=DIRECTION('ref_axis',(1.,0.,0.));
#193=DIRECTION('',(-0.707106781186547,-8.65956056235493E-17,0.707106781186548));
#194=DIRECTION('center_axis',(0.,0.,-1.));
#195=DIRECTION('ref_axis',(1.,0.,0.));
#196=DIRECTION('center_axis',(0.,0.,-1.));
#197=DIRECTION('ref_axis',(1.,0.,0.));
#198=DIRECTION('',(0.,0.,-1.));
#199=DIRECTION('center_axis',(0.,0.,-1.));
#200=DIRECTION('ref_axis',(-1.,0.,0.));
#201=DIRECTION('center_axis',(0.,0.,1.));
#202=DIRECTION('ref_axis',(1.,0.,0.));
#203=CARTESIAN_POINT('',(0.,0.,0.));
#204=CARTESIAN_POINT('Origin',(-2.36064120735332E-16,0.,-8.));
#205=CARTESIAN_POINT('',(-3.245,3.97397886323316E-16,-8.));
#206=CARTESIAN_POINT('Origin',(0.,0.,-8.));
#207=CARTESIAN_POINT('Origin',(0.,0.,-0.999999999999999));
#208=CARTESIAN_POINT('',(-15.,1.83690953073357E-15,-2.));
#209=CARTESIAN_POINT('Origin',(0.,0.,-2.));
#210=CARTESIAN_POINT('',(-15.,1.83690953073357E-15,1.33226762955019E-15));
#211=CARTESIAN_POINT('',(-15.,1.83697019872103E-15,-0.999999999999999));
#212=CARTESIAN_POINT('Origin',(0.,0.,1.3E-15));
#213=CARTESIAN_POINT('Ctrl Pts',(-13.47240063002,-4.73885386554515E-12,
-2.68782726086225));
#214=CARTESIAN_POINT('Ctrl Pts',(-13.47240063002,-13.4724006299602,-2.68782726073151));
#215=CARTESIAN_POINT('Ctrl Pts',(-6.45052852704291E-11,-13.4724006299602,
-2.68782726031317));
#216=CARTESIAN_POINT('Ctrl Pts',(13.4724006298909,-13.4724006299602,-2.68782725989483));
#217=CARTESIAN_POINT('Ctrl Pts',(13.4724006298909,-4.73885386554515E-12,
-2.68782726002556));
#218=CARTESIAN_POINT('Ctrl Pts',(13.4724006298909,13.4724006299507,-2.6878272601563));
#219=CARTESIAN_POINT('Ctrl Pts',(-6.45052852623099E-11,13.4724006299507,
-2.68782726057464));
#220=CARTESIAN_POINT('Ctrl Pts',(-13.47240063002,13.4724006299507,-2.68782726099298));
#221=CARTESIAN_POINT('Ctrl Pts',(-13.47240063002,-4.73885386554515E-12,
-2.68782726086225));
#222=CARTESIAN_POINT('Ctrl Pts',(-13.5000000053529,-1.40687224899831E-12,
-2.34446734903062));
#223=CARTESIAN_POINT('Ctrl Pts',(-13.5000000053529,-13.5000000052792,-2.34446734889962));
#224=CARTESIAN_POINT('Ctrl Pts',(-7.51672179517874E-11,-13.5000000052792,
-2.34446734848042));
#225=CARTESIAN_POINT('Ctrl Pts',(13.5000000052026,-13.5000000052792,-2.34446734806122));
#226=CARTESIAN_POINT('Ctrl Pts',(13.5000000052026,-1.4068722489983E-12,
-2.34446734819222));
#227=CARTESIAN_POINT('Ctrl Pts',(13.5000000052026,13.5000000052764,-2.34446734832323));
#228=CARTESIAN_POINT('Ctrl Pts',(-7.51672179436515E-11,13.5000000052764,
-2.34446734874243));
#229=CARTESIAN_POINT('Ctrl Pts',(-13.5000000053529,13.5000000052764,-2.34446734916163));
#230=CARTESIAN_POINT('Ctrl Pts',(-13.5000000053529,-1.40687224899831E-12,
-2.34446734903062));
#231=CARTESIAN_POINT('Ctrl Pts',(-13.5000000053472,1.93585599338574E-12,
-1.9999999999657));
#232=CARTESIAN_POINT('Ctrl Pts',(-13.5000000053471,-13.5000000052593,-1.9999999998347));
#233=CARTESIAN_POINT('Ctrl Pts',(-8.58635385183102E-11,-13.5000000052593,
-1.9999999994155));
#234=CARTESIAN_POINT('Ctrl Pts',(13.5000000051754,-13.5000000052593,-1.9999999989963));
#235=CARTESIAN_POINT('Ctrl Pts',(13.5000000051754,1.93585599338574E-12,
-1.99999999912731));
#236=CARTESIAN_POINT('Ctrl Pts',(13.5000000051754,13.5000000052632,-1.99999999925831));
#237=CARTESIAN_POINT('Ctrl Pts',(-8.58635385101743E-11,13.5000000052632,
-1.99999999967751));
#238=CARTESIAN_POINT('Ctrl Pts',(-13.5000000053471,13.5000000052632,-2.00000000009671));
#239=CARTESIAN_POINT('Ctrl Pts',(-13.5000000053472,1.93585599338574E-12,
-1.9999999999657));
#240=CARTESIAN_POINT('',(13.5000000052669,0.,-2.));
#241=CARTESIAN_POINT('',(-13.5000000052669,1.93420271987344E-12,-2.));
#242=CARTESIAN_POINT('Origin',(0.,0.,-2.));
#243=CARTESIAN_POINT('Origin',(0.,0.,-2.));
#244=CARTESIAN_POINT('',(-13.4724006238201,-4.74050374558755E-12,-2.68782725950326));
#245=CARTESIAN_POINT('Origin',(-4.91523929002932,1.93525404619259E-12,-2.00000000010997));
#246=CARTESIAN_POINT('',(13.4724006238201,0.,-2.68782725950326));
#247=CARTESIAN_POINT('Origin',(0.,0.,-2.68782725950326));
#248=CARTESIAN_POINT('Origin',(0.,0.,-2.68782725950326));
#249=CARTESIAN_POINT('Ctrl Pts',(-3.70025950509612E-14,9.27633890421164E-15,
-36.));
#250=CARTESIAN_POINT('Ctrl Pts',(-3.70025950509612E-14,1.29795018712342E-14,
-36.));
#251=CARTESIAN_POINT('Ctrl Pts',(-4.07057580179837E-14,1.29795018712342E-14,
-36.));
#252=CARTESIAN_POINT('Ctrl Pts',(-4.44089209850063E-14,1.29795018712342E-14,
-36.));
#253=CARTESIAN_POINT('Ctrl Pts',(-4.44089209850063E-14,9.27633890421164E-15,
-36.));
#254=CARTESIAN_POINT('Ctrl Pts',(-4.44089209850063E-14,5.57317593718911E-15,
-36.));
#255=CARTESIAN_POINT('Ctrl Pts',(-4.07057580179837E-14,5.57317593718911E-15,
-36.));
#256=CARTESIAN_POINT('Ctrl Pts',(-3.70025950509612E-14,5.57317593718911E-15,
-36.));
#257=CARTESIAN_POINT('Ctrl Pts',(-3.70025950509612E-14,9.27633890421164E-15,
-36.));
#258=CARTESIAN_POINT('Ctrl Pts',(-11.9636449526254,5.97580473781563E-15,
-21.4580425695594));
#259=CARTESIAN_POINT('Ctrl Pts',(-11.9636449526254,-11.9636449526254,-21.4580425695594));
#260=CARTESIAN_POINT('Ctrl Pts',(-3.19536897589127E-14,-11.9636449526254,
-21.4580425695594));
#261=CARTESIAN_POINT('Ctrl Pts',(11.9636449526254,-11.9636449526254,-21.4580425695594));
#262=CARTESIAN_POINT('Ctrl Pts',(11.9636449526254,5.97580473781564E-15,
-21.4580425695594));
#263=CARTESIAN_POINT('Ctrl Pts',(11.9636449526254,11.9636449526254,-21.4580425695594));
#264=CARTESIAN_POINT('Ctrl Pts',(-3.19536897589127E-14,11.9636449526254,
-21.4580425695594));
#265=CARTESIAN_POINT('Ctrl Pts',(-11.9636449526254,11.9636449526254,-21.4580425695594));
#266=CARTESIAN_POINT('Ctrl Pts',(-11.9636449526254,5.97580473781563E-15,
-21.4580425695594));
#267=CARTESIAN_POINT('Ctrl Pts',(-13.4724006238201,1.71559855595968E-15,
-2.68782725950324));
#268=CARTESIAN_POINT('Ctrl Pts',(-13.4724006238201,-13.4724006238201,-2.68782725950325));
#269=CARTESIAN_POINT('Ctrl Pts',(-2.06568470596495E-14,-13.4724006238201,
-2.68782725950325));
#270=CARTESIAN_POINT('Ctrl Pts',(13.4724006238201,-13.4724006238201,-2.68782725950326));
#271=CARTESIAN_POINT('Ctrl Pts',(13.4724006238201,1.71559855595968E-15,
-2.68782725950326));
#272=CARTESIAN_POINT('Ctrl Pts',(13.4724006238201,13.4724006238201,-2.68782725950326));
#273=CARTESIAN_POINT('Ctrl Pts',(-2.06568470596495E-14,13.4724006238201,
-2.68782725950325));
#274=CARTESIAN_POINT('Ctrl Pts',(-13.4724006238201,13.4724006238201,-2.68782725950324));
#275=CARTESIAN_POINT('Ctrl Pts',(-13.4724006238201,1.71559855595968E-15,
-2.68782725950324));
#276=CARTESIAN_POINT('',(0.,0.,-36.));
#277=CARTESIAN_POINT('Origin',(46.3347037800001,6.29886511871345E-15,2.11948615999998));
#278=CARTESIAN_POINT('Origin',(0.,0.,-0.3775));
#279=CARTESIAN_POINT('',(-3.245,3.97384761815361E-16,-0.754999999999999));
#280=CARTESIAN_POINT('Origin',(0.,0.,-0.754999999999999));
#281=CARTESIAN_POINT('',(-4.,4.89842541528951E-16,5.32907051820075E-16));
#282=CARTESIAN_POINT('',(-3.6225,-4.43628302991129E-16,-0.3775));
#283=CARTESIAN_POINT('Origin',(0.,0.,8.88178419700125E-16));
#284=CARTESIAN_POINT('Origin',(0.,0.,-5.3775));
#285=CARTESIAN_POINT('',(-3.245,3.97397886323316E-16,-5.3775));
#286=CARTESIAN_POINT('Origin',(14.2500000026334,0.,-2.));
#287=CARTESIAN_POINT('Origin',(7.5,0.,6.66133814775094E-16));
#288=UNCERTAINTY_MEASURE_WITH_UNIT(LENGTH_MEASURE(0.01),#292,
'DISTANCE_ACCURACY_VALUE',
'Maximum model space distance between geometric entities at asserted c
onnectivities');
#289=UNCERTAINTY_MEASURE_WITH_UNIT(LENGTH_MEASURE(0.01),#292,
'DISTANCE_ACCURACY_VALUE',
'Maximum model space distance between geometric entities at asserted c
onnectivities');
#290=(
GEOMETRIC_REPRESENTATION_CONTEXT(3)
GLOBAL_UNCERTAINTY_ASSIGNED_CONTEXT((#288))
GLOBAL_UNIT_ASSIGNED_CONTEXT((#292,#295,#294))
REPRESENTATION_CONTEXT('','3D')
);
#291=(
GEOMETRIC_REPRESENTATION_CONTEXT(3)
GLOBAL_UNCERTAINTY_ASSIGNED_CONTEXT((#289))
GLOBAL_UNIT_ASSIGNED_CONTEXT((#292,#295,#294))
REPRESENTATION_CONTEXT('','3D')
);
#292=(
LENGTH_UNIT()
NAMED_UNIT(*)
SI_UNIT(.MILLI.,.METRE.)
);
#293=(
LENGTH_UNIT()
NAMED_UNIT(*)
SI_UNIT(.CENTI.,.METRE.)
);
#294=(
NAMED_UNIT(*)
SI_UNIT($,.STERADIAN.)
SOLID_ANGLE_UNIT()
);
#295=(
NAMED_UNIT(*)
PLANE_ANGLE_UNIT()
SI_UNIT($,.RADIAN.)
);
#296=SHAPE_DEFINITION_REPRESENTATION(#297,#298);
#297=PRODUCT_DEFINITION_SHAPE('',$,#300);
#298=SHAPE_REPRESENTATION('',(#146),#290);
#299=PRODUCT_DEFINITION_CONTEXT('part definition',#304,'design');
#300=PRODUCT_DEFINITION('12170',
'12170 Parabelpuffer D30x36 M8 mit Innengewinde',#301,#299);
#301=PRODUCT_DEFINITION_FORMATION('',$,#306);
#302=PRODUCT_RELATED_PRODUCT_CATEGORY(
'12170 Parabelpuffer D30x36 M8 mit Innengewinde',
'12170 Parabelpuffer D30x36 M8 mit Innengewinde',(#306));
#303=APPLICATION_PROTOCOL_DEFINITION('international standard',
'automotive_design',2009,#304);
#304=APPLICATION_CONTEXT(
'Core Data for Automotive Mechanical Design Process');
#305=PRODUCT_CONTEXT('part definition',#304,'mechanical');
#306=PRODUCT('12170','12170 Parabelpuffer D30x36 M8 mit Innengewinde',
'KriTec Parabelpuffer \X\D830x36 M8 mit Innengewinde',(#305));
#307=PRESENTATION_STYLE_ASSIGNMENT((#312));
#308=PRESENTATION_STYLE_ASSIGNMENT((#313));
#309=PRESENTATION_STYLE_ASSIGNMENT((#314));
#310=PRESENTATION_STYLE_ASSIGNMENT((#315));
#311=PRESENTATION_STYLE_ASSIGNMENT((#316));
#312=SURFACE_STYLE_USAGE(.BOTH.,#317);
#313=SURFACE_STYLE_USAGE(.BOTH.,#318);
#314=SURFACE_STYLE_USAGE(.BOTH.,#319);
#315=SURFACE_STYLE_USAGE(.BOTH.,#320);
#316=SURFACE_STYLE_USAGE(.BOTH.,#321);
#317=SURFACE_SIDE_STYLE('',(#322));
#318=SURFACE_SIDE_STYLE('',(#323));
#319=SURFACE_SIDE_STYLE('',(#324));
#320=SURFACE_SIDE_STYLE('',(#325));
#321=SURFACE_SIDE_STYLE('',(#326));
#322=SURFACE_STYLE_FILL_AREA(#327);
#323=SURFACE_STYLE_FILL_AREA(#328);
#324=SURFACE_STYLE_FILL_AREA(#329);
#325=SURFACE_STYLE_FILL_AREA(#330);
#326=SURFACE_STYLE_FILL_AREA(#331);
#327=FILL_AREA_STYLE('',(#332));
#328=FILL_AREA_STYLE('',(#333));
#329=FILL_AREA_STYLE('',(#334));
#330=FILL_AREA_STYLE('',(#335));
#331=FILL_AREA_STYLE('',(#336));
#332=FILL_AREA_STYLE_COLOUR('',#337);
#333=FILL_AREA_STYLE_COLOUR('',#338);
#334=FILL_AREA_STYLE_COLOUR('',#339);
#335=FILL_AREA_STYLE_COLOUR('',#340);
#336=FILL_AREA_STYLE_COLOUR('',#341);
#337=COLOUR_RGB('',0.376470588235294,0.376470588235294,0.376470588235294);
#338=COLOUR_RGB('',0.501960784313725,0.501960784313725,0.501960784313725);
#339=COLOUR_RGB('',0.250980392156863,0.250980392156863,0.250980392156863);
#340=COLOUR_RGB('',0.956862745098039,0.956862745098039,0.956862745098039);
#341=COLOUR_RGB('',1.,0.501960784313725,0.250980392156863);
ENDSEC;
END-ISO-10303-21;
