ISO-10303-21;
HEADER;
/* Generated by software containing ST-Developer
 * from STEP Tools, Inc. (www.steptools.com) 
 */

FILE_DESCRIPTION(
/* description */ ('Halbrundschraube'),
/* implementation_level */ '2;1');

FILE_NAME(
/* name */ 
'S:\\Bilder_neu\\11700_KriTec_Halbrundschraube_mit_glattem_Schaft_M8x2
0_aehnlich_ISO_7380_verzinkt\\Inventordateien\\11700_KriTec_Halbrundsc
hraube_mit_glattem_Schaft_M8x20_aehnlich_ISO_7380_verzinkt.stp',
/* time_stamp */ '2017-08-25T14:37:30+02:00',
/* author */ ('kostic'),
/* organization */ (''),
/* preprocessor_version */ 'ST-DEVELOPER v16.1',
/* originating_system */ 'Autodesk Inventor 2016',
/* authorisation */ '');

FILE_SCHEMA (('AUTOMOTIVE_DESIGN { 1 0 10303 214 3 1 1 }'));
ENDSEC;

DATA;
#10=MECHANICAL_DESIGN_GEOMETRIC_PRESENTATION_REPRESENTATION('',(#13),#377);
#11=SHAPE_REPRESENTATION_RELATIONSHIP('SRR','None',#386,#12);
#12=ADVANCED_BREP_SHAPE_REPRESENTATION('',(#14),#376);
#13=STYLED_ITEM('',(#395),#14);
#14=MANIFOLD_SOLID_BREP('Solid1',#220);
#15=(
BOUNDED_CURVE()
B_SPLINE_CURVE(2,(#340,#341,#342),.UNSPECIFIED.,.F.,.F.)
B_SPLINE_CURVE_WITH_KNOTS((3,3),(0.,0.292109034519483),.UNSPECIFIED.)
CURVE()
GEOMETRIC_REPRESENTATION_ITEM()
RATIONAL_B_SPLINE_CURVE((1.,1.15470053837925,1.))
REPRESENTATION_ITEM('')
);
#16=(
BOUNDED_CURVE()
B_SPLINE_CURVE(2,(#347,#348,#349),.UNSPECIFIED.,.F.,.F.)
B_SPLINE_CURVE_WITH_KNOTS((3,3),(0.,0.292109034519483),.UNSPECIFIED.)
CURVE()
GEOMETRIC_REPRESENTATION_ITEM()
RATIONAL_B_SPLINE_CURVE((1.,1.15470053837925,1.))
REPRESENTATION_ITEM('')
);
#17=(
BOUNDED_CURVE()
B_SPLINE_CURVE(2,(#353,#354,#355),.UNSPECIFIED.,.F.,.F.)
B_SPLINE_CURVE_WITH_KNOTS((3,3),(0.,0.292109034519483),.UNSPECIFIED.)
CURVE()
GEOMETRIC_REPRESENTATION_ITEM()
RATIONAL_B_SPLINE_CURVE((1.,1.15470053837925,1.))
REPRESENTATION_ITEM('')
);
#18=(
BOUNDED_CURVE()
B_SPLINE_CURVE(2,(#359,#360,#361),.UNSPECIFIED.,.F.,.F.)
B_SPLINE_CURVE_WITH_KNOTS((3,3),(0.,0.292109034519483),.UNSPECIFIED.)
CURVE()
GEOMETRIC_REPRESENTATION_ITEM()
RATIONAL_B_SPLINE_CURVE((1.,1.15470053837926,1.))
REPRESENTATION_ITEM('')
);
#19=(
BOUNDED_CURVE()
B_SPLINE_CURVE(2,(#365,#366,#367),.UNSPECIFIED.,.F.,.F.)
B_SPLINE_CURVE_WITH_KNOTS((3,3),(0.,0.292109034519483),.UNSPECIFIED.)
CURVE()
GEOMETRIC_REPRESENTATION_ITEM()
RATIONAL_B_SPLINE_CURVE((1.,1.15470053837925,1.))
REPRESENTATION_ITEM('')
);
#20=(
BOUNDED_CURVE()
B_SPLINE_CURVE(2,(#370,#371,#372),.UNSPECIFIED.,.F.,.F.)
B_SPLINE_CURVE_WITH_KNOTS((3,3),(0.,0.292109034519483),.UNSPECIFIED.)
CURVE()
GEOMETRIC_REPRESENTATION_ITEM()
RATIONAL_B_SPLINE_CURVE((1.,1.15470053837925,1.))
REPRESENTATION_ITEM('')
);
#21=LINE('',#326,#33);
#22=LINE('',#328,#34);
#23=LINE('',#330,#35);
#24=LINE('',#332,#36);
#25=LINE('',#334,#37);
#26=LINE('',#335,#38);
#27=LINE('',#343,#39);
#28=LINE('',#344,#40);
#29=LINE('',#350,#41);
#30=LINE('',#356,#42);
#31=LINE('',#362,#43);
#32=LINE('',#368,#44);
#33=VECTOR('',#274,2.88675134594813);
#34=VECTOR('',#275,2.88675134594813);
#35=VECTOR('',#276,2.88675134594813);
#36=VECTOR('',#277,2.88675134594813);
#37=VECTOR('',#278,2.88675134594813);
#38=VECTOR('',#279,2.88675134594813);
#39=VECTOR('',#284,2.60000000000001);
#40=VECTOR('',#285,2.60000000000001);
#41=VECTOR('',#288,2.60000000000001);
#42=VECTOR('',#291,2.60000000000001);
#43=VECTOR('',#294,2.60000000000001);
#44=VECTOR('',#297,2.60000000000001);
#45=CONICAL_SURFACE('',#229,3.61659375,45.);
#46=CONICAL_SURFACE('',#243,1.44337567297406,60.0000000000001);
#47=PLANE('',#227);
#48=PLANE('',#231);
#49=PLANE('',#235);
#50=PLANE('',#237);
#51=PLANE('',#238);
#52=PLANE('',#239);
#53=PLANE('',#240);
#54=PLANE('',#241);
#55=PLANE('',#242);
#56=CYLINDRICAL_SURFACE('',#225,4.);
#57=CYLINDRICAL_SURFACE('',#236,7.);
#58=FACE_BOUND('',#81,.T.);
#59=FACE_BOUND('',#83,.T.);
#60=FACE_BOUND('',#85,.T.);
#61=FACE_BOUND('',#87,.T.);
#62=FACE_BOUND('',#90,.T.);
#63=FACE_BOUND('',#92,.T.);
#64=FACE_BOUND('',#94,.T.);
#65=FACE_OUTER_BOUND('',#80,.T.);
#66=FACE_OUTER_BOUND('',#82,.T.);
#67=FACE_OUTER_BOUND('',#84,.T.);
#68=FACE_OUTER_BOUND('',#86,.T.);
#69=FACE_OUTER_BOUND('',#88,.T.);
#70=FACE_OUTER_BOUND('',#89,.T.);
#71=FACE_OUTER_BOUND('',#91,.T.);
#72=FACE_OUTER_BOUND('',#93,.T.);
#73=FACE_OUTER_BOUND('',#95,.T.);
#74=FACE_OUTER_BOUND('',#96,.T.);
#75=FACE_OUTER_BOUND('',#97,.T.);
#76=FACE_OUTER_BOUND('',#98,.T.);
#77=FACE_OUTER_BOUND('',#99,.T.);
#78=FACE_OUTER_BOUND('',#100,.T.);
#79=FACE_OUTER_BOUND('',#101,.T.);
#80=EDGE_LOOP('',(#153));
#81=EDGE_LOOP('',(#154));
#82=EDGE_LOOP('',(#155));
#83=EDGE_LOOP('',(#156));
#84=EDGE_LOOP('',(#157));
#85=EDGE_LOOP('',(#158));
#86=EDGE_LOOP('',(#159));
#87=EDGE_LOOP('',(#160));
#88=EDGE_LOOP('',(#161));
#89=EDGE_LOOP('',(#162));
#90=EDGE_LOOP('',(#163));
#91=EDGE_LOOP('',(#164));
#92=EDGE_LOOP('',(#165,#166,#167,#168,#169,#170));
#93=EDGE_LOOP('',(#171));
#94=EDGE_LOOP('',(#172));
#95=EDGE_LOOP('',(#173,#174,#175,#176));
#96=EDGE_LOOP('',(#177,#178,#179,#180));
#97=EDGE_LOOP('',(#181,#182,#183,#184));
#98=EDGE_LOOP('',(#185,#186,#187,#188));
#99=EDGE_LOOP('',(#189,#190,#191,#192));
#100=EDGE_LOOP('',(#193,#194,#195,#196));
#101=EDGE_LOOP('',(#197,#198,#199,#200,#201,#202));
#102=CIRCLE('',#223,4.7);
#103=CIRCLE('',#224,4.);
#104=CIRCLE('',#226,4.);
#105=CIRCLE('',#228,7.);
#106=CIRCLE('',#230,3.2331875);
#107=CIRCLE('',#233,3.65);
#108=CIRCLE('',#234,7.);
#109=VERTEX_POINT('',#304);
#110=VERTEX_POINT('',#306);
#111=VERTEX_POINT('',#309);
#112=VERTEX_POINT('',#312);
#113=VERTEX_POINT('',#315);
#114=VERTEX_POINT('',#319);
#115=VERTEX_POINT('',#321);
#116=VERTEX_POINT('',#324);
#117=VERTEX_POINT('',#325);
#118=VERTEX_POINT('',#327);
#119=VERTEX_POINT('',#329);
#120=VERTEX_POINT('',#331);
#121=VERTEX_POINT('',#333);
#122=VERTEX_POINT('',#338);
#123=VERTEX_POINT('',#339);
#124=VERTEX_POINT('',#346);
#125=VERTEX_POINT('',#352);
#126=VERTEX_POINT('',#358);
#127=VERTEX_POINT('',#364);
#128=EDGE_CURVE('',#109,#109,#102,.T.);
#129=EDGE_CURVE('',#110,#110,#103,.T.);
#130=EDGE_CURVE('',#111,#111,#104,.T.);
#131=EDGE_CURVE('',#112,#112,#105,.T.);
#132=EDGE_CURVE('',#113,#113,#106,.T.);
#133=EDGE_CURVE('',#114,#114,#107,.T.);
#134=EDGE_CURVE('',#115,#115,#108,.T.);
#135=EDGE_CURVE('',#116,#117,#21,.T.);
#136=EDGE_CURVE('',#117,#118,#22,.T.);
#137=EDGE_CURVE('',#118,#119,#23,.T.);
#138=EDGE_CURVE('',#119,#120,#24,.T.);
#139=EDGE_CURVE('',#120,#121,#25,.T.);
#140=EDGE_CURVE('',#121,#116,#26,.T.);
#141=EDGE_CURVE('',#122,#123,#15,.T.);
#142=EDGE_CURVE('',#122,#121,#27,.T.);
#143=EDGE_CURVE('',#123,#120,#28,.T.);
#144=EDGE_CURVE('',#124,#122,#16,.T.);
#145=EDGE_CURVE('',#124,#116,#29,.T.);
#146=EDGE_CURVE('',#125,#124,#17,.T.);
#147=EDGE_CURVE('',#125,#117,#30,.T.);
#148=EDGE_CURVE('',#126,#125,#18,.T.);
#149=EDGE_CURVE('',#118,#126,#31,.T.);
#150=EDGE_CURVE('',#123,#127,#19,.T.);
#151=EDGE_CURVE('',#127,#119,#32,.T.);
#152=EDGE_CURVE('',#127,#126,#20,.T.);
#153=ORIENTED_EDGE('',*,*,#128,.T.);
#154=ORIENTED_EDGE('',*,*,#129,.T.);
#155=ORIENTED_EDGE('',*,*,#129,.F.);
#156=ORIENTED_EDGE('',*,*,#130,.F.);
#157=ORIENTED_EDGE('',*,*,#131,.T.);
#158=ORIENTED_EDGE('',*,*,#128,.F.);
#159=ORIENTED_EDGE('',*,*,#130,.T.);
#160=ORIENTED_EDGE('',*,*,#132,.T.);
#161=ORIENTED_EDGE('',*,*,#132,.F.);
#162=ORIENTED_EDGE('',*,*,#133,.T.);
#163=ORIENTED_EDGE('',*,*,#134,.T.);
#164=ORIENTED_EDGE('',*,*,#133,.F.);
#165=ORIENTED_EDGE('',*,*,#135,.T.);
#166=ORIENTED_EDGE('',*,*,#136,.T.);
#167=ORIENTED_EDGE('',*,*,#137,.T.);
#168=ORIENTED_EDGE('',*,*,#138,.T.);
#169=ORIENTED_EDGE('',*,*,#139,.T.);
#170=ORIENTED_EDGE('',*,*,#140,.T.);
#171=ORIENTED_EDGE('',*,*,#131,.F.);
#172=ORIENTED_EDGE('',*,*,#134,.F.);
#173=ORIENTED_EDGE('',*,*,#141,.F.);
#174=ORIENTED_EDGE('',*,*,#142,.T.);
#175=ORIENTED_EDGE('',*,*,#139,.F.);
#176=ORIENTED_EDGE('',*,*,#143,.F.);
#177=ORIENTED_EDGE('',*,*,#144,.F.);
#178=ORIENTED_EDGE('',*,*,#145,.T.);
#179=ORIENTED_EDGE('',*,*,#140,.F.);
#180=ORIENTED_EDGE('',*,*,#142,.F.);
#181=ORIENTED_EDGE('',*,*,#146,.F.);
#182=ORIENTED_EDGE('',*,*,#147,.T.);
#183=ORIENTED_EDGE('',*,*,#135,.F.);
#184=ORIENTED_EDGE('',*,*,#145,.F.);
#185=ORIENTED_EDGE('',*,*,#148,.F.);
#186=ORIENTED_EDGE('',*,*,#149,.F.);
#187=ORIENTED_EDGE('',*,*,#136,.F.);
#188=ORIENTED_EDGE('',*,*,#147,.F.);
#189=ORIENTED_EDGE('',*,*,#150,.F.);
#190=ORIENTED_EDGE('',*,*,#143,.T.);
#191=ORIENTED_EDGE('',*,*,#138,.F.);
#192=ORIENTED_EDGE('',*,*,#151,.F.);
#193=ORIENTED_EDGE('',*,*,#152,.F.);
#194=ORIENTED_EDGE('',*,*,#151,.T.);
#195=ORIENTED_EDGE('',*,*,#137,.F.);
#196=ORIENTED_EDGE('',*,*,#149,.T.);
#197=ORIENTED_EDGE('',*,*,#148,.T.);
#198=ORIENTED_EDGE('',*,*,#146,.T.);
#199=ORIENTED_EDGE('',*,*,#144,.T.);
#200=ORIENTED_EDGE('',*,*,#141,.T.);
#201=ORIENTED_EDGE('',*,*,#150,.T.);
#202=ORIENTED_EDGE('',*,*,#152,.T.);
#203=TOROIDAL_SURFACE('',#222,4.7,0.7);
#204=TOROIDAL_SURFACE('',#232,3.65,3.35);
#205=ADVANCED_FACE('',(#65,#58),#203,.F.);
#206=ADVANCED_FACE('',(#66,#59),#56,.T.);
#207=ADVANCED_FACE('',(#67,#60),#47,.T.);
#208=ADVANCED_FACE('',(#68,#61),#45,.T.);
#209=ADVANCED_FACE('',(#69),#48,.T.);
#210=ADVANCED_FACE('',(#70,#62),#204,.T.);
#211=ADVANCED_FACE('',(#71,#63),#49,.T.);
#212=ADVANCED_FACE('',(#72,#64),#57,.T.);
#213=ADVANCED_FACE('',(#73),#50,.F.);
#214=ADVANCED_FACE('',(#74),#51,.F.);
#215=ADVANCED_FACE('',(#75),#52,.F.);
#216=ADVANCED_FACE('',(#76),#53,.F.);
#217=ADVANCED_FACE('',(#77),#54,.F.);
#218=ADVANCED_FACE('',(#78),#55,.F.);
#219=ADVANCED_FACE('',(#79),#46,.F.);
#220=CLOSED_SHELL('',(#205,#206,#207,#208,#209,#210,#211,#212,#213,#214,
#215,#216,#217,#218,#219));
#221=AXIS2_PLACEMENT_3D('placement',#302,#244,#245);
#222=AXIS2_PLACEMENT_3D('',#303,#246,#247);
#223=AXIS2_PLACEMENT_3D('',#305,#248,#249);
#224=AXIS2_PLACEMENT_3D('',#307,#250,#251);
#225=AXIS2_PLACEMENT_3D('',#308,#252,#253);
#226=AXIS2_PLACEMENT_3D('',#310,#254,#255);
#227=AXIS2_PLACEMENT_3D('',#311,#256,#257);
#228=AXIS2_PLACEMENT_3D('',#313,#258,#259);
#229=AXIS2_PLACEMENT_3D('',#314,#260,#261);
#230=AXIS2_PLACEMENT_3D('',#316,#262,#263);
#231=AXIS2_PLACEMENT_3D('',#317,#264,#265);
#232=AXIS2_PLACEMENT_3D('',#318,#266,#267);
#233=AXIS2_PLACEMENT_3D('',#320,#268,#269);
#234=AXIS2_PLACEMENT_3D('',#322,#270,#271);
#235=AXIS2_PLACEMENT_3D('',#323,#272,#273);
#236=AXIS2_PLACEMENT_3D('',#336,#280,#281);
#237=AXIS2_PLACEMENT_3D('',#337,#282,#283);
#238=AXIS2_PLACEMENT_3D('',#345,#286,#287);
#239=AXIS2_PLACEMENT_3D('',#351,#289,#290);
#240=AXIS2_PLACEMENT_3D('',#357,#292,#293);
#241=AXIS2_PLACEMENT_3D('',#363,#295,#296);
#242=AXIS2_PLACEMENT_3D('',#369,#298,#299);
#243=AXIS2_PLACEMENT_3D('',#373,#300,#301);
#244=DIRECTION('axis',(0.,0.,1.));
#245=DIRECTION('refdir',(1.,0.,0.));
#246=DIRECTION('center_axis',(1.,5.98373334115326E-18,0.));
#247=DIRECTION('ref_axis',(0.,0.,-1.));
#248=DIRECTION('center_axis',(1.,5.98373334115326E-18,0.));
#249=DIRECTION('ref_axis',(5.98373334115326E-18,-1.,1.22464679914735E-16));
#250=DIRECTION('center_axis',(-1.,-5.98373334115326E-18,0.));
#251=DIRECTION('ref_axis',(0.,-1.,1.22464679914735E-16));
#252=DIRECTION('center_axis',(1.,5.98373334115326E-18,0.));
#253=DIRECTION('ref_axis',(0.,1.,0.));
#254=DIRECTION('center_axis',(1.,5.98373334115326E-18,0.));
#255=DIRECTION('ref_axis',(0.,-1.,0.));
#256=DIRECTION('center_axis',(1.,5.98373334115326E-18,0.));
#257=DIRECTION('ref_axis',(0.,0.,-1.));
#258=DIRECTION('center_axis',(1.,5.98373334115326E-18,0.));
#259=DIRECTION('ref_axis',(0.,1.,0.));
#260=DIRECTION('center_axis',(-1.,-5.98373334115326E-18,0.));
#261=DIRECTION('ref_axis',(2.67468966371326E-18,-1.,0.));
#262=DIRECTION('center_axis',(-1.,-5.98373334115326E-18,0.));
#263=DIRECTION('ref_axis',(5.98373334115326E-18,-1.,0.));
#264=DIRECTION('center_axis',(1.,5.98373334115326E-18,0.));
#265=DIRECTION('ref_axis',(0.,0.,-1.));
#266=DIRECTION('center_axis',(1.,5.98373334115326E-18,0.));
#267=DIRECTION('ref_axis',(0.,0.,-1.));
#268=DIRECTION('center_axis',(1.,5.98373334115326E-18,0.));
#269=DIRECTION('ref_axis',(5.98373334115326E-18,-1.,1.22464679914735E-16));
#270=DIRECTION('center_axis',(-1.,-5.98373334115326E-18,0.));
#271=DIRECTION('ref_axis',(0.,-1.,1.22464679914735E-16));
#272=DIRECTION('center_axis',(-1.,-5.98373334115326E-18,0.));
#273=DIRECTION('ref_axis',(0.,0.,1.));
#274=DIRECTION('',(-5.75324797015349E-33,9.61481343191782E-16,1.));
#275=DIRECTION('',(5.18206508291066E-18,-0.866025403784438,0.5));
#276=DIRECTION('',(5.18206508291066E-18,-0.866025403784439,-0.5));
#277=DIRECTION('',(5.75324797015348E-34,-9.61481343191782E-17,-1.));
#278=DIRECTION('',(-5.18206508291066E-18,0.866025403784439,-0.5));
#279=DIRECTION('',(-5.18206508291066E-18,0.866025403784439,0.5));
#280=DIRECTION('center_axis',(1.,5.98373334115326E-18,0.));
#281=DIRECTION('ref_axis',(0.,1.,0.));
#282=DIRECTION('center_axis',(2.99186667057663E-18,-0.5,-0.866025403784439));
#283=DIRECTION('ref_axis',(-1.,0.,0.));
#284=DIRECTION('',(-1.,-5.98373334115326E-18,0.));
#285=DIRECTION('',(-1.,-5.98373334115326E-18,0.));
#286=DIRECTION('center_axis',(-2.99186667057663E-18,0.5,-0.866025403784439));
#287=DIRECTION('ref_axis',(-1.,0.,0.));
#288=DIRECTION('',(-1.,-5.98373334115326E-18,0.));
#289=DIRECTION('center_axis',(-5.98373334115326E-18,1.,-9.61481343191782E-16));
#290=DIRECTION('ref_axis',(0.,9.76996261670138E-16,1.));
#291=DIRECTION('',(-1.,-5.98373334115326E-18,0.));
#292=DIRECTION('center_axis',(-2.99186667057663E-18,0.5,0.866025403784438));
#293=DIRECTION('ref_axis',(1.,0.,0.));
#294=DIRECTION('',(1.,5.98373334115326E-18,0.));
#295=DIRECTION('center_axis',(5.98373334115326E-18,-1.,9.61481343191782E-17));
#296=DIRECTION('ref_axis',(0.,-8.88178419700125E-17,-1.));
#297=DIRECTION('',(-1.,-5.98373334115326E-18,0.));
#298=DIRECTION('center_axis',(2.99186667057663E-18,-0.5,0.866025403784439));
#299=DIRECTION('ref_axis',(1.,0.,0.));
#300=DIRECTION('center_axis',(-1.,-5.98373334115326E-18,0.));
#301=DIRECTION('ref_axis',(0.,1.,0.));
#302=CARTESIAN_POINT('',(0.,0.,0.));
#303=CARTESIAN_POINT('Origin',(0.700000000000003,-1.15486053484258E-16,
0.));
#304=CARTESIAN_POINT('',(2.19232250254689E-15,4.7,0.));
#305=CARTESIAN_POINT('Origin',(2.22044604925031E-15,-1.19674666823065E-16,
0.));
#306=CARTESIAN_POINT('',(0.700000000000003,4.,-9.79717439317882E-16));
#307=CARTESIAN_POINT('Origin',(0.700000000000003,-1.15486053484258E-16,
0.));
#308=CARTESIAN_POINT('Origin',(11.875,-4.86178333968702E-17,0.));
#309=CARTESIAN_POINT('',(19.2331875,4.,4.89858719658941E-16));
#310=CARTESIAN_POINT('Origin',(19.2331875,-4.58840152266309E-18,0.));
#311=CARTESIAN_POINT('Origin',(2.22044604925031E-15,5.5,0.));
#312=CARTESIAN_POINT('',(2.22044604925031E-15,7.,0.));
#313=CARTESIAN_POINT('Origin',(2.22044604925031E-15,-1.19674666823065E-16,
0.));
#314=CARTESIAN_POINT('Origin',(19.61659375,-2.29420076133154E-18,0.));
#315=CARTESIAN_POINT('',(20.,3.2331875,-3.95951272291823E-16));
#316=CARTESIAN_POINT('Origin',(20.,-9.62964972193618E-34,0.));
#317=CARTESIAN_POINT('Origin',(20.,2.,0.));
#318=CARTESIAN_POINT('Origin',(-1.05,-1.25957586831276E-16,0.));
#319=CARTESIAN_POINT('',(-4.4,3.65,0.));
#320=CARTESIAN_POINT('Origin',(-4.4,-1.46003093524139E-16,0.));
#321=CARTESIAN_POINT('',(-1.05,7.,-1.71450551880629E-15));
#322=CARTESIAN_POINT('Origin',(-1.05,-1.25957586831276E-16,0.));
#323=CARTESIAN_POINT('Origin',(-4.4,4.94337567297407,0.));
#324=CARTESIAN_POINT('',(-4.4,2.5,-1.44337567297407));
#325=CARTESIAN_POINT('',(-4.4,2.5,1.44337567297406));
#326=CARTESIAN_POINT('',(-4.4,2.5,0.72168783648703));
#327=CARTESIAN_POINT('',(-4.4,2.07521986050829E-16,2.88675134594813));
#328=CARTESIAN_POINT('',(-4.4,0.625,2.52590742770461));
#329=CARTESIAN_POINT('',(-4.4,-2.5,1.44337567297407));
#330=CARTESIAN_POINT('',(-4.4,-1.875,1.80421959121758));
#331=CARTESIAN_POINT('',(-4.4,-2.5,-1.44337567297406));
#332=CARTESIAN_POINT('',(-4.4,-2.5,-0.721687836487032));
#333=CARTESIAN_POINT('',(-4.4,-4.94147952424845E-16,-2.88675134594813));
#334=CARTESIAN_POINT('',(-4.4,-0.625000000000001,-2.52590742770461));
#335=CARTESIAN_POINT('',(-4.4,1.875,-1.80421959121758));
#336=CARTESIAN_POINT('Origin',(-2.2,-1.32838880173602E-16,0.));
#337=CARTESIAN_POINT('Origin',(-4.4,-4.94147952424845E-16,-2.88675134594813));
#338=CARTESIAN_POINT('',(-1.79999999999999,-9.55887439860013E-16,-2.88675134594813));
#339=CARTESIAN_POINT('',(-1.79999999999999,-2.5,-1.44337567297406));
#340=CARTESIAN_POINT('Ctrl Pts',(-1.79999999999999,1.41370381838279E-14,
-2.88675134594814));
#341=CARTESIAN_POINT('Ctrl Pts',(-1.38333333333332,-1.25,-2.1650635094611));
#342=CARTESIAN_POINT('Ctrl Pts',(-1.79999999999999,-2.50000000000001,-1.44337567297406));
#343=CARTESIAN_POINT('',(-3.1,-1.2490009027033E-15,-2.88675134594813));
#344=CARTESIAN_POINT('',(-3.1,-2.5,-1.44337567297406));
#345=CARTESIAN_POINT('Origin',(-4.4,2.5,-1.44337567297407));
#346=CARTESIAN_POINT('',(-1.79999999999999,2.5,-1.44337567297407));
#347=CARTESIAN_POINT('Ctrl Pts',(-1.79999999999999,2.50000000000001,-1.44337567297406));
#348=CARTESIAN_POINT('Ctrl Pts',(-1.38333333333332,1.25,-2.1650635094611));
#349=CARTESIAN_POINT('Ctrl Pts',(-1.79999999999999,-1.50063162125826E-14,
-2.88675134594814));
#350=CARTESIAN_POINT('',(-3.1,2.5,-1.44337567297407));
#351=CARTESIAN_POINT('Origin',(-4.4,2.5,1.44337567297406));
#352=CARTESIAN_POINT('',(-1.79999999999999,2.5,1.44337567297406));
#353=CARTESIAN_POINT('Ctrl Pts',(-1.79999999999999,2.5,1.44337567297408));
#354=CARTESIAN_POINT('Ctrl Pts',(-1.38333333333332,2.5,-2.63677968348475E-15));
#355=CARTESIAN_POINT('Ctrl Pts',(-1.79999999999999,2.5,-1.44337567297408));
#356=CARTESIAN_POINT('',(-3.1,2.5,1.44337567297406));
#357=CARTESIAN_POINT('Origin',(-4.4,-2.63284267010743E-17,2.88675134594813));
#358=CARTESIAN_POINT('',(-1.79999999999999,-8.17109561781869E-16,2.88675134594813));
#359=CARTESIAN_POINT('Ctrl Pts',(-1.79999999999999,-1.45899825783481E-14,
2.88675134594814));
#360=CARTESIAN_POINT('Ctrl Pts',(-1.38333333333332,1.25,2.16506350946109));
#361=CARTESIAN_POINT('Ctrl Pts',(-1.79999999999999,2.50000000000002,1.44337567297405));
#362=CARTESIAN_POINT('',(-3.1,-5.55111512312578E-16,2.88675134594813));
#363=CARTESIAN_POINT('Origin',(-4.4,-2.5,-1.44337567297406));
#364=CARTESIAN_POINT('',(-1.79999999999999,-2.5,1.44337567297407));
#365=CARTESIAN_POINT('Ctrl Pts',(-1.79999999999999,-2.5,-1.44337567297408));
#366=CARTESIAN_POINT('Ctrl Pts',(-1.38333333333332,-2.5,-4.6502426369136E-16));
#367=CARTESIAN_POINT('Ctrl Pts',(-1.79999999999999,-2.5,1.44337567297408));
#368=CARTESIAN_POINT('',(-3.1,-2.5,1.44337567297406));
#369=CARTESIAN_POINT('Origin',(-4.4,-2.5,1.44337567297407));
#370=CARTESIAN_POINT('Ctrl Pts',(-1.79999999999999,-2.50000000000002,1.44337567297406));
#371=CARTESIAN_POINT('Ctrl Pts',(-1.38333333333332,-1.25,2.1650635094611));
#372=CARTESIAN_POINT('Ctrl Pts',(-1.79999999999999,1.53860390865312E-14,
2.88675134594814));
#373=CARTESIAN_POINT('Origin',(-0.966666666666658,-1.2545894238618E-16,
0.));
#374=UNCERTAINTY_MEASURE_WITH_UNIT(LENGTH_MEASURE(0.01),#378,
'DISTANCE_ACCURACY_VALUE',
'Maximum model space distance between geometric entities at asserted c
onnectivities');
#375=UNCERTAINTY_MEASURE_WITH_UNIT(LENGTH_MEASURE(1.E-6),#378,
'DISTANCE_ACCURACY_VALUE',
'Maximum model space distance between geometric entities at asserted c
onnectivities');
#376=(
GEOMETRIC_REPRESENTATION_CONTEXT(3)
GLOBAL_UNCERTAINTY_ASSIGNED_CONTEXT((#374))
GLOBAL_UNIT_ASSIGNED_CONTEXT((#378,#381,#379))
REPRESENTATION_CONTEXT('','3D')
);
#377=(
GEOMETRIC_REPRESENTATION_CONTEXT(3)
GLOBAL_UNCERTAINTY_ASSIGNED_CONTEXT((#375))
GLOBAL_UNIT_ASSIGNED_CONTEXT((#378,#381,#379))
REPRESENTATION_CONTEXT('','3D')
);
#378=(
LENGTH_UNIT()
NAMED_UNIT(*)
SI_UNIT(.MILLI.,.METRE.)
);
#379=(
NAMED_UNIT(*)
SI_UNIT($,.STERADIAN.)
SOLID_ANGLE_UNIT()
);
#380=DIMENSIONAL_EXPONENTS(0.,0.,0.,0.,0.,0.,0.);
#381=(
CONVERSION_BASED_UNIT('degree',#383)
NAMED_UNIT(#380)
PLANE_ANGLE_UNIT()
);
#382=(
NAMED_UNIT(*)
PLANE_ANGLE_UNIT()
SI_UNIT($,.RADIAN.)
);
#383=PLANE_ANGLE_MEASURE_WITH_UNIT(PLANE_ANGLE_MEASURE(0.01745329252),#382);
#384=SHAPE_DEFINITION_REPRESENTATION(#385,#386);
#385=PRODUCT_DEFINITION_SHAPE('',$,#388);
#386=SHAPE_REPRESENTATION('',(#221),#376);
#387=PRODUCT_DEFINITION_CONTEXT('part definition',#392,'design');
#388=PRODUCT_DEFINITION(
'11700_KriTec_Halbrundschraube_mit_glattem_Schaft_M8x20_aehnlich_ISO_7
380_verzinkt',
'11700_KriTec_Halbrundschraube_mit_glattem_Schaft_M8x20_aehnlich_ISO_7
380_verzinkt',#389,#387);
#389=PRODUCT_DEFINITION_FORMATION('',$,#394);
#390=PRODUCT_RELATED_PRODUCT_CATEGORY(
'11700_KriTec_Halbrundschraube_mit_glattem_Schaft_M8x20_aehnlich_ISO_7
380_verzinkt',
'11700_KriTec_Halbrundschraube_mit_glattem_Schaft_M8x20_aehnlich_ISO_7
380_verzinkt',(#394));
#391=APPLICATION_PROTOCOL_DEFINITION('international standard',
'automotive_design',2009,#392);
#392=APPLICATION_CONTEXT(
'Core Data for Automotive Mechanical Design Process');
#393=PRODUCT_CONTEXT('part definition',#392,'mechanical');
#394=PRODUCT(
'11700_KriTec_Halbrundschraube_mit_glattem_Schaft_M8x20_aehnlich_ISO_7
380_verzinkt',
'11700_KriTec_Halbrundschraube_mit_glattem_Schaft_M8x20_aehnlich_ISO_7
380_verzinkt',$,(#393));
#395=PRESENTATION_STYLE_ASSIGNMENT((#396));
#396=SURFACE_STYLE_USAGE(.BOTH.,#397);
#397=SURFACE_SIDE_STYLE('',(#398));
#398=SURFACE_STYLE_FILL_AREA(#399);
#399=FILL_AREA_STYLE('',(#400));
#400=FILL_AREA_STYLE_COLOUR('',#401);
#401=COLOUR_RGB('',0.956862745098039,0.956862745098039,0.956862745098039);
ENDSEC;
END-ISO-10303-21;
