ISO-10303-21;
HEADER;
/* Generated by software containing ST-Developer
 * from STEP Tools, Inc. (www.steptools.com) 
 */

FILE_DESCRIPTION(
/* description */ (''),
/* implementation_level */ '2;1');

FILE_NAME(
/* name */ 
'S:\\Bilder_neu\\11599_KriTec_Fussplatte_8_40x40_M10_schwarz\\Inventor
dateien\\11599_Kritec_Fu\X\DFplatte_8_40x40_M10_schwarz.stp',
/* time_stamp */ '2014-06-02T10:01:12+02:00',
/* author */ ('kostic'),
/* organization */ (''),
/* preprocessor_version */ 'ST-DEVELOPER v15.2',
/* originating_system */ 'Autodesk Inventor 2014',
/* authorisation */ '');

FILE_SCHEMA (('AUTOMOTIVE_DESIGN { 1 0 10303 214 3 1 1 }'));
ENDSEC;

DATA;
#10=SHAPE_REPRESENTATION_RELATIONSHIP('SRR','None',#661,#11);
#11=ADVANCED_BREP_SHAPE_REPRESENTATION($,(#382),#652);
#12=STYLED_ITEM($,(#669),#382);
#13=FACE_BOUND($,#92,.T.);
#14=FACE_BOUND($,#93,.T.);
#15=FACE_BOUND($,#94,.T.);
#16=FACE_BOUND($,#96,.T.);
#17=FACE_BOUND($,#98,.T.);
#18=FACE_BOUND($,#100,.T.);
#19=FACE_BOUND($,#101,.T.);
#20=FACE_BOUND($,#103,.T.);
#21=FACE_BOUND($,#105,.T.);
#22=FACE_BOUND($,#107,.T.);
#23=FACE_BOUND($,#109,.T.);
#24=CYLINDRICAL_SURFACE($,#400,4.);
#25=CYLINDRICAL_SURFACE($,#403,4.);
#26=CYLINDRICAL_SURFACE($,#412,4.188);
#27=CYLINDRICAL_SURFACE($,#422,7.);
#28=CYLINDRICAL_SURFACE($,#423,4.5);
#29=CYLINDRICAL_SURFACE($,#424,4.);
#30=CYLINDRICAL_SURFACE($,#426,4.);
#31=CIRCLE($,#386,4.);
#32=CIRCLE($,#387,3.);
#33=CIRCLE($,#390,4.);
#34=CIRCLE($,#391,3.);
#35=CIRCLE($,#394,4.);
#36=CIRCLE($,#395,3.);
#37=CIRCLE($,#398,4.);
#38=CIRCLE($,#399,3.);
#39=CIRCLE($,#401,4.);
#40=CIRCLE($,#404,4.);
#41=CIRCLE($,#407,4.988);
#42=CIRCLE($,#408,7.);
#43=CIRCLE($,#410,4.188);
#44=CIRCLE($,#411,4.988);
#45=CIRCLE($,#413,4.188);
#46=CIRCLE($,#415,4.);
#47=CIRCLE($,#416,4.);
#48=CIRCLE($,#417,4.5);
#49=CIRCLE($,#420,7.);
#50=CIRCLE($,#421,4.5);
#51=CONICAL_SURFACE($,#385,3.5,45.);
#52=CONICAL_SURFACE($,#389,3.5,45.);
#53=CONICAL_SURFACE($,#393,3.5,45.);
#54=CONICAL_SURFACE($,#397,3.5,45.);
#55=CONICAL_SURFACE($,#409,4.588,45.);
#56=CONICAL_SURFACE($,#418,4.588,45.);
#57=FACE_OUTER_BOUND($,#80,.T.);
#58=FACE_OUTER_BOUND($,#81,.T.);
#59=FACE_OUTER_BOUND($,#82,.T.);
#60=FACE_OUTER_BOUND($,#83,.T.);
#61=FACE_OUTER_BOUND($,#84,.T.);
#62=FACE_OUTER_BOUND($,#85,.T.);
#63=FACE_OUTER_BOUND($,#86,.T.);
#64=FACE_OUTER_BOUND($,#87,.T.);
#65=FACE_OUTER_BOUND($,#88,.T.);
#66=FACE_OUTER_BOUND($,#89,.T.);
#67=FACE_OUTER_BOUND($,#90,.T.);
#68=FACE_OUTER_BOUND($,#91,.T.);
#69=FACE_OUTER_BOUND($,#95,.T.);
#70=FACE_OUTER_BOUND($,#97,.T.);
#71=FACE_OUTER_BOUND($,#99,.T.);
#72=FACE_OUTER_BOUND($,#102,.T.);
#73=FACE_OUTER_BOUND($,#104,.T.);
#74=FACE_OUTER_BOUND($,#106,.T.);
#75=FACE_OUTER_BOUND($,#108,.T.);
#76=FACE_OUTER_BOUND($,#110,.T.);
#77=FACE_OUTER_BOUND($,#111,.T.);
#78=FACE_OUTER_BOUND($,#112,.T.);
#79=FACE_OUTER_BOUND($,#113,.T.);
#80=EDGE_LOOP($,(#250,#251,#252,#253));
#81=EDGE_LOOP($,(#254,#255,#256,#257));
#82=EDGE_LOOP($,(#258,#259,#260,#261));
#83=EDGE_LOOP($,(#262,#263,#264,#265));
#84=EDGE_LOOP($,(#266,#267,#268,#269));
#85=EDGE_LOOP($,(#270,#271,#272,#273));
#86=EDGE_LOOP($,(#274,#275,#276,#277));
#87=EDGE_LOOP($,(#278,#279,#280,#281));
#88=EDGE_LOOP($,(#282,#283,#284,#285));
#89=EDGE_LOOP($,(#286,#287,#288,#289));
#90=EDGE_LOOP($,(#290,#291,#292,#293));
#91=EDGE_LOOP($,(#294,#295,#296,#297));
#92=EDGE_LOOP($,(#298));
#93=EDGE_LOOP($,(#299));
#94=EDGE_LOOP($,(#300,#301,#302,#303,#304,#305,#306,#307));
#95=EDGE_LOOP($,(#308));
#96=EDGE_LOOP($,(#309));
#97=EDGE_LOOP($,(#310));
#98=EDGE_LOOP($,(#311));
#99=EDGE_LOOP($,(#312,#313,#314,#315,#316,#317,#318,#319));
#100=EDGE_LOOP($,(#320));
#101=EDGE_LOOP($,(#321));
#102=EDGE_LOOP($,(#322));
#103=EDGE_LOOP($,(#323));
#104=EDGE_LOOP($,(#324));
#105=EDGE_LOOP($,(#325));
#106=EDGE_LOOP($,(#326));
#107=EDGE_LOOP($,(#327));
#108=EDGE_LOOP($,(#328));
#109=EDGE_LOOP($,(#329));
#110=EDGE_LOOP($,(#330,#331,#332,#333));
#111=EDGE_LOOP($,(#334,#335,#336,#337));
#112=EDGE_LOOP($,(#338,#339,#340,#341));
#113=EDGE_LOOP($,(#342,#343,#344,#345));
#114=LINE($,#550,#142);
#115=LINE($,#552,#143);
#116=LINE($,#554,#144);
#117=LINE($,#555,#145);
#118=LINE($,#560,#146);
#119=LINE($,#565,#147);
#120=LINE($,#566,#148);
#121=LINE($,#567,#149);
#122=LINE($,#572,#150);
#123=LINE($,#577,#151);
#124=LINE($,#578,#152);
#125=LINE($,#579,#153);
#126=LINE($,#584,#154);
#127=LINE($,#589,#155);
#128=LINE($,#590,#156);
#129=LINE($,#591,#157);
#130=LINE($,#597,#158);
#131=LINE($,#600,#159);
#132=LINE($,#603,#160);
#133=LINE($,#604,#161);
#134=LINE($,#607,#162);
#135=LINE($,#611,#163);
#136=LINE($,#612,#164);
#137=LINE($,#630,#165);
#138=LINE($,#633,#166);
#139=LINE($,#645,#167);
#140=LINE($,#647,#168);
#141=LINE($,#649,#169);
#142=VECTOR($,#432,1.4142135623731);
#143=VECTOR($,#433,32.);
#144=VECTOR($,#434,1.4142135623731);
#145=VECTOR($,#435,32.);
#146=VECTOR($,#440,1.4142135623731);
#147=VECTOR($,#445,1.4142135623731);
#148=VECTOR($,#446,32.);
#149=VECTOR($,#447,32.);
#150=VECTOR($,#452,1.4142135623731);
#151=VECTOR($,#457,1.4142135623731);
#152=VECTOR($,#458,32.);
#153=VECTOR($,#459,32.);
#154=VECTOR($,#464,1.41421356237309);
#155=VECTOR($,#469,1.4142135623731);
#156=VECTOR($,#470,32.);
#157=VECTOR($,#471,32.);
#158=VECTOR($,#480,14.);
#159=VECTOR($,#483,14.);
#160=VECTOR($,#486,14.);
#161=VECTOR($,#487,32.);
#162=VECTOR($,#490,14.);
#163=VECTOR($,#495,14.);
#164=VECTOR($,#496,32.);
#165=VECTOR($,#517,32.);
#166=VECTOR($,#520,32.);
#167=VECTOR($,#537,14.);
#168=VECTOR($,#540,14.);
#169=VECTOR($,#543,14.);
#170=VERTEX_POINT($,#548);
#171=VERTEX_POINT($,#549);
#172=VERTEX_POINT($,#551);
#173=VERTEX_POINT($,#553);
#174=VERTEX_POINT($,#557);
#175=VERTEX_POINT($,#559);
#176=VERTEX_POINT($,#563);
#177=VERTEX_POINT($,#564);
#178=VERTEX_POINT($,#569);
#179=VERTEX_POINT($,#571);
#180=VERTEX_POINT($,#575);
#181=VERTEX_POINT($,#576);
#182=VERTEX_POINT($,#581);
#183=VERTEX_POINT($,#583);
#184=VERTEX_POINT($,#587);
#185=VERTEX_POINT($,#588);
#186=VERTEX_POINT($,#596);
#187=VERTEX_POINT($,#598);
#188=VERTEX_POINT($,#602);
#189=VERTEX_POINT($,#606);
#190=VERTEX_POINT($,#610);
#191=VERTEX_POINT($,#614);
#192=VERTEX_POINT($,#616);
#193=VERTEX_POINT($,#619);
#194=VERTEX_POINT($,#621);
#195=VERTEX_POINT($,#624);
#196=VERTEX_POINT($,#627);
#197=VERTEX_POINT($,#629);
#198=VERTEX_POINT($,#631);
#199=VERTEX_POINT($,#634);
#200=VERTEX_POINT($,#638);
#201=VERTEX_POINT($,#640);
#202=EDGE_CURVE($,#170,#171,#114,.T.);
#203=EDGE_CURVE($,#171,#172,#115,.T.);
#204=EDGE_CURVE($,#172,#173,#116,.T.);
#205=EDGE_CURVE($,#173,#170,#117,.T.);
#206=EDGE_CURVE($,#170,#174,#31,.T.);
#207=EDGE_CURVE($,#174,#175,#118,.T.);
#208=EDGE_CURVE($,#175,#171,#32,.T.);
#209=EDGE_CURVE($,#176,#177,#119,.T.);
#210=EDGE_CURVE($,#177,#175,#120,.T.);
#211=EDGE_CURVE($,#174,#176,#121,.T.);
#212=EDGE_CURVE($,#176,#178,#33,.T.);
#213=EDGE_CURVE($,#178,#179,#122,.T.);
#214=EDGE_CURVE($,#179,#177,#34,.T.);
#215=EDGE_CURVE($,#180,#181,#123,.T.);
#216=EDGE_CURVE($,#181,#179,#124,.T.);
#217=EDGE_CURVE($,#178,#180,#125,.T.);
#218=EDGE_CURVE($,#180,#182,#35,.T.);
#219=EDGE_CURVE($,#182,#183,#126,.T.);
#220=EDGE_CURVE($,#183,#181,#36,.T.);
#221=EDGE_CURVE($,#184,#185,#127,.T.);
#222=EDGE_CURVE($,#185,#183,#128,.T.);
#223=EDGE_CURVE($,#182,#184,#129,.T.);
#224=EDGE_CURVE($,#184,#173,#37,.T.);
#225=EDGE_CURVE($,#172,#185,#38,.T.);
#226=EDGE_CURVE($,#176,#186,#130,.T.);
#227=EDGE_CURVE($,#186,#187,#39,.T.);
#228=EDGE_CURVE($,#187,#178,#131,.T.);
#229=EDGE_CURVE($,#188,#174,#132,.T.);
#230=EDGE_CURVE($,#188,#186,#133,.T.);
#231=EDGE_CURVE($,#170,#189,#134,.T.);
#232=EDGE_CURVE($,#189,#188,#40,.T.);
#233=EDGE_CURVE($,#190,#173,#135,.T.);
#234=EDGE_CURVE($,#190,#189,#136,.T.);
#235=EDGE_CURVE($,#191,#191,#41,.T.);
#236=EDGE_CURVE($,#192,#192,#42,.T.);
#237=EDGE_CURVE($,#193,#193,#43,.T.);
#238=EDGE_CURVE($,#194,#194,#44,.T.);
#239=EDGE_CURVE($,#195,#195,#45,.T.);
#240=EDGE_CURVE($,#196,#190,#46,.T.);
#241=EDGE_CURVE($,#197,#196,#137,.T.);
#242=EDGE_CURVE($,#198,#197,#47,.T.);
#243=EDGE_CURVE($,#187,#198,#138,.T.);
#244=EDGE_CURVE($,#199,#199,#48,.T.);
#245=EDGE_CURVE($,#200,#200,#49,.T.);
#246=EDGE_CURVE($,#201,#201,#50,.T.);
#247=EDGE_CURVE($,#184,#196,#139,.T.);
#248=EDGE_CURVE($,#197,#182,#140,.T.);
#249=EDGE_CURVE($,#180,#198,#141,.T.);
#250=ORIENTED_EDGE($,*,*,#202,.T.);
#251=ORIENTED_EDGE($,*,*,#203,.T.);
#252=ORIENTED_EDGE($,*,*,#204,.T.);
#253=ORIENTED_EDGE($,*,*,#205,.T.);
#254=ORIENTED_EDGE($,*,*,#202,.F.);
#255=ORIENTED_EDGE($,*,*,#206,.T.);
#256=ORIENTED_EDGE($,*,*,#207,.T.);
#257=ORIENTED_EDGE($,*,*,#208,.T.);
#258=ORIENTED_EDGE($,*,*,#209,.T.);
#259=ORIENTED_EDGE($,*,*,#210,.T.);
#260=ORIENTED_EDGE($,*,*,#207,.F.);
#261=ORIENTED_EDGE($,*,*,#211,.T.);
#262=ORIENTED_EDGE($,*,*,#209,.F.);
#263=ORIENTED_EDGE($,*,*,#212,.T.);
#264=ORIENTED_EDGE($,*,*,#213,.T.);
#265=ORIENTED_EDGE($,*,*,#214,.T.);
#266=ORIENTED_EDGE($,*,*,#215,.T.);
#267=ORIENTED_EDGE($,*,*,#216,.T.);
#268=ORIENTED_EDGE($,*,*,#213,.F.);
#269=ORIENTED_EDGE($,*,*,#217,.T.);
#270=ORIENTED_EDGE($,*,*,#215,.F.);
#271=ORIENTED_EDGE($,*,*,#218,.T.);
#272=ORIENTED_EDGE($,*,*,#219,.T.);
#273=ORIENTED_EDGE($,*,*,#220,.T.);
#274=ORIENTED_EDGE($,*,*,#221,.T.);
#275=ORIENTED_EDGE($,*,*,#222,.T.);
#276=ORIENTED_EDGE($,*,*,#219,.F.);
#277=ORIENTED_EDGE($,*,*,#223,.T.);
#278=ORIENTED_EDGE($,*,*,#221,.F.);
#279=ORIENTED_EDGE($,*,*,#224,.T.);
#280=ORIENTED_EDGE($,*,*,#204,.F.);
#281=ORIENTED_EDGE($,*,*,#225,.T.);
#282=ORIENTED_EDGE($,*,*,#212,.F.);
#283=ORIENTED_EDGE($,*,*,#226,.T.);
#284=ORIENTED_EDGE($,*,*,#227,.T.);
#285=ORIENTED_EDGE($,*,*,#228,.T.);
#286=ORIENTED_EDGE($,*,*,#211,.F.);
#287=ORIENTED_EDGE($,*,*,#229,.F.);
#288=ORIENTED_EDGE($,*,*,#230,.T.);
#289=ORIENTED_EDGE($,*,*,#226,.F.);
#290=ORIENTED_EDGE($,*,*,#206,.F.);
#291=ORIENTED_EDGE($,*,*,#231,.T.);
#292=ORIENTED_EDGE($,*,*,#232,.T.);
#293=ORIENTED_EDGE($,*,*,#229,.T.);
#294=ORIENTED_EDGE($,*,*,#205,.F.);
#295=ORIENTED_EDGE($,*,*,#233,.F.);
#296=ORIENTED_EDGE($,*,*,#234,.T.);
#297=ORIENTED_EDGE($,*,*,#231,.F.);
#298=ORIENTED_EDGE($,*,*,#235,.F.);
#299=ORIENTED_EDGE($,*,*,#236,.T.);
#300=ORIENTED_EDGE($,*,*,#203,.F.);
#301=ORIENTED_EDGE($,*,*,#208,.F.);
#302=ORIENTED_EDGE($,*,*,#210,.F.);
#303=ORIENTED_EDGE($,*,*,#214,.F.);
#304=ORIENTED_EDGE($,*,*,#216,.F.);
#305=ORIENTED_EDGE($,*,*,#220,.F.);
#306=ORIENTED_EDGE($,*,*,#222,.F.);
#307=ORIENTED_EDGE($,*,*,#225,.F.);
#308=ORIENTED_EDGE($,*,*,#237,.T.);
#309=ORIENTED_EDGE($,*,*,#238,.T.);
#310=ORIENTED_EDGE($,*,*,#239,.F.);
#311=ORIENTED_EDGE($,*,*,#237,.F.);
#312=ORIENTED_EDGE($,*,*,#240,.F.);
#313=ORIENTED_EDGE($,*,*,#241,.F.);
#314=ORIENTED_EDGE($,*,*,#242,.F.);
#315=ORIENTED_EDGE($,*,*,#243,.F.);
#316=ORIENTED_EDGE($,*,*,#227,.F.);
#317=ORIENTED_EDGE($,*,*,#230,.F.);
#318=ORIENTED_EDGE($,*,*,#232,.F.);
#319=ORIENTED_EDGE($,*,*,#234,.F.);
#320=ORIENTED_EDGE($,*,*,#244,.T.);
#321=ORIENTED_EDGE($,*,*,#238,.F.);
#322=ORIENTED_EDGE($,*,*,#239,.T.);
#323=ORIENTED_EDGE($,*,*,#235,.T.);
#324=ORIENTED_EDGE($,*,*,#245,.T.);
#325=ORIENTED_EDGE($,*,*,#246,.F.);
#326=ORIENTED_EDGE($,*,*,#236,.F.);
#327=ORIENTED_EDGE($,*,*,#245,.F.);
#328=ORIENTED_EDGE($,*,*,#244,.F.);
#329=ORIENTED_EDGE($,*,*,#246,.T.);
#330=ORIENTED_EDGE($,*,*,#224,.F.);
#331=ORIENTED_EDGE($,*,*,#247,.T.);
#332=ORIENTED_EDGE($,*,*,#240,.T.);
#333=ORIENTED_EDGE($,*,*,#233,.T.);
#334=ORIENTED_EDGE($,*,*,#223,.F.);
#335=ORIENTED_EDGE($,*,*,#248,.F.);
#336=ORIENTED_EDGE($,*,*,#241,.T.);
#337=ORIENTED_EDGE($,*,*,#247,.F.);
#338=ORIENTED_EDGE($,*,*,#218,.F.);
#339=ORIENTED_EDGE($,*,*,#249,.T.);
#340=ORIENTED_EDGE($,*,*,#242,.T.);
#341=ORIENTED_EDGE($,*,*,#248,.T.);
#342=ORIENTED_EDGE($,*,*,#217,.F.);
#343=ORIENTED_EDGE($,*,*,#228,.F.);
#344=ORIENTED_EDGE($,*,*,#243,.T.);
#345=ORIENTED_EDGE($,*,*,#249,.F.);
#346=PLANE($,#384);
#347=PLANE($,#388);
#348=PLANE($,#392);
#349=PLANE($,#396);
#350=PLANE($,#402);
#351=PLANE($,#405);
#352=PLANE($,#406);
#353=PLANE($,#414);
#354=PLANE($,#419);
#355=PLANE($,#425);
#356=PLANE($,#427);
#357=ADVANCED_FACE($,(#57),#346,.T.);
#358=ADVANCED_FACE($,(#58),#51,.T.);
#359=ADVANCED_FACE($,(#59),#347,.T.);
#360=ADVANCED_FACE($,(#60),#52,.T.);
#361=ADVANCED_FACE($,(#61),#348,.T.);
#362=ADVANCED_FACE($,(#62),#53,.T.);
#363=ADVANCED_FACE($,(#63),#349,.T.);
#364=ADVANCED_FACE($,(#64),#54,.T.);
#365=ADVANCED_FACE($,(#65),#24,.T.);
#366=ADVANCED_FACE($,(#66),#350,.T.);
#367=ADVANCED_FACE($,(#67),#25,.T.);
#368=ADVANCED_FACE($,(#68),#351,.T.);
#369=ADVANCED_FACE($,(#13,#14,#15),#352,.T.);
#370=ADVANCED_FACE($,(#69,#16),#55,.F.);
#371=ADVANCED_FACE($,(#70,#17),#26,.F.);
#372=ADVANCED_FACE($,(#71,#18,#19),#353,.F.);
#373=ADVANCED_FACE($,(#72,#20),#56,.F.);
#374=ADVANCED_FACE($,(#73,#21),#354,.T.);
#375=ADVANCED_FACE($,(#74,#22),#27,.F.);
#376=ADVANCED_FACE($,(#75,#23),#28,.F.);
#377=ADVANCED_FACE($,(#76),#29,.T.);
#378=ADVANCED_FACE($,(#77),#355,.T.);
#379=ADVANCED_FACE($,(#78),#30,.T.);
#380=ADVANCED_FACE($,(#79),#356,.T.);
#381=CLOSED_SHELL($,(#357,#358,#359,#360,#361,#362,#363,#364,#365,#366,
#367,#368,#369,#370,#371,#372,#373,#374,#375,#376,#377,#378,#379,#380));
#382=MANIFOLD_SOLID_BREP('Volumenk\X\F6rper1',#381);
#383=AXIS2_PLACEMENT_3D('placement',#546,#428,#429);
#384=AXIS2_PLACEMENT_3D($,#547,#430,#431);
#385=AXIS2_PLACEMENT_3D($,#556,#436,#437);
#386=AXIS2_PLACEMENT_3D($,#558,#438,#439);
#387=AXIS2_PLACEMENT_3D($,#561,#441,#442);
#388=AXIS2_PLACEMENT_3D($,#562,#443,#444);
#389=AXIS2_PLACEMENT_3D($,#568,#448,#449);
#390=AXIS2_PLACEMENT_3D($,#570,#450,#451);
#391=AXIS2_PLACEMENT_3D($,#573,#453,#454);
#392=AXIS2_PLACEMENT_3D($,#574,#455,#456);
#393=AXIS2_PLACEMENT_3D($,#580,#460,#461);
#394=AXIS2_PLACEMENT_3D($,#582,#462,#463);
#395=AXIS2_PLACEMENT_3D($,#585,#465,#466);
#396=AXIS2_PLACEMENT_3D($,#586,#467,#468);
#397=AXIS2_PLACEMENT_3D($,#592,#472,#473);
#398=AXIS2_PLACEMENT_3D($,#593,#474,#475);
#399=AXIS2_PLACEMENT_3D($,#594,#476,#477);
#400=AXIS2_PLACEMENT_3D($,#595,#478,#479);
#401=AXIS2_PLACEMENT_3D($,#599,#481,#482);
#402=AXIS2_PLACEMENT_3D($,#601,#484,#485);
#403=AXIS2_PLACEMENT_3D($,#605,#488,#489);
#404=AXIS2_PLACEMENT_3D($,#608,#491,#492);
#405=AXIS2_PLACEMENT_3D($,#609,#493,#494);
#406=AXIS2_PLACEMENT_3D($,#613,#497,#498);
#407=AXIS2_PLACEMENT_3D($,#615,#499,#500);
#408=AXIS2_PLACEMENT_3D($,#617,#501,#502);
#409=AXIS2_PLACEMENT_3D($,#618,#503,#504);
#410=AXIS2_PLACEMENT_3D($,#620,#505,#506);
#411=AXIS2_PLACEMENT_3D($,#622,#507,#508);
#412=AXIS2_PLACEMENT_3D($,#623,#509,#510);
#413=AXIS2_PLACEMENT_3D($,#625,#511,#512);
#414=AXIS2_PLACEMENT_3D($,#626,#513,#514);
#415=AXIS2_PLACEMENT_3D($,#628,#515,#516);
#416=AXIS2_PLACEMENT_3D($,#632,#518,#519);
#417=AXIS2_PLACEMENT_3D($,#635,#521,#522);
#418=AXIS2_PLACEMENT_3D($,#636,#523,#524);
#419=AXIS2_PLACEMENT_3D($,#637,#525,#526);
#420=AXIS2_PLACEMENT_3D($,#639,#527,#528);
#421=AXIS2_PLACEMENT_3D($,#641,#529,#530);
#422=AXIS2_PLACEMENT_3D($,#642,#531,#532);
#423=AXIS2_PLACEMENT_3D($,#643,#533,#534);
#424=AXIS2_PLACEMENT_3D($,#644,#535,#536);
#425=AXIS2_PLACEMENT_3D($,#646,#538,#539);
#426=AXIS2_PLACEMENT_3D($,#648,#541,#542);
#427=AXIS2_PLACEMENT_3D($,#650,#544,#545);
#428=DIRECTION('axis',(0.,0.,1.));
#429=DIRECTION('refdir',(1.,0.,0.));
#430=DIRECTION('center_axis',(-0.707106781186548,0.,0.707106781186548));
#431=DIRECTION('ref_axis',(0.707106781186548,0.,0.707106781186548));
#432=DIRECTION($,(0.707106781186547,0.,0.707106781186547));
#433=DIRECTION($,(0.,1.,0.));
#434=DIRECTION($,(-0.707106781186547,0.,-0.707106781186547));
#435=DIRECTION($,(0.,-1.,0.));
#436=DIRECTION('center_axis',(0.,0.,-1.));
#437=DIRECTION('ref_axis',(-0.707106781186548,-0.707106781186548,0.));
#438=DIRECTION('center_axis',(0.,0.,1.));
#439=DIRECTION('ref_axis',(-0.707106781186548,-0.707106781186548,0.));
#440=DIRECTION($,(0.,0.707106781186547,0.707106781186547));
#441=DIRECTION('center_axis',(0.,0.,-1.));
#442=DIRECTION('ref_axis',(-0.707106781186547,-0.707106781186547,0.));
#443=DIRECTION('center_axis',(-7.85046229341888E-017,-0.707106781186548,
0.707106781186548));
#444=DIRECTION('ref_axis',(1.,0.,1.77635683940025E-016));
#445=DIRECTION($,(0.,0.707106781186548,0.707106781186547));
#446=DIRECTION($,(-1.,1.11022302462516E-016,0.));
#447=DIRECTION($,(1.,-1.11022302462516E-016,0.));
#448=DIRECTION('center_axis',(0.,0.,-1.));
#449=DIRECTION('ref_axis',(0.707106781186548,-0.707106781186548,0.));
#450=DIRECTION('center_axis',(0.,0.,1.));
#451=DIRECTION('ref_axis',(0.707106781186548,-0.707106781186548,0.));
#452=DIRECTION($,(-0.707106781186547,0.,0.707106781186547));
#453=DIRECTION('center_axis',(0.,0.,-1.));
#454=DIRECTION('ref_axis',(0.707106781186547,-0.707106781186547,0.));
#455=DIRECTION('center_axis',(0.707106781186548,-1.17756934401283E-016,
0.707106781186548));
#456=DIRECTION('ref_axis',(0.707106781186548,0.,-0.707106781186548));
#457=DIRECTION($,(-0.707106781186547,0.,0.707106781186547));
#458=DIRECTION($,(-1.66533453693773E-016,-1.,0.));
#459=DIRECTION($,(1.66533453693773E-016,1.,0.));
#460=DIRECTION('center_axis',(0.,0.,-1.));
#461=DIRECTION('ref_axis',(0.707106781186548,0.707106781186547,0.));
#462=DIRECTION('center_axis',(0.,0.,1.));
#463=DIRECTION('ref_axis',(0.707106781186548,0.707106781186547,0.));
#464=DIRECTION($,(0.,-0.707106781186547,0.707106781186548));
#465=DIRECTION('center_axis',(0.,0.,-1.));
#466=DIRECTION('ref_axis',(0.707106781186548,0.707106781186547,0.));
#467=DIRECTION('center_axis',(7.85046229341888E-017,0.707106781186548,0.707106781186548));
#468=DIRECTION('ref_axis',(1.,0.,-1.77635683940025E-016));
#469=DIRECTION($,(0.,-0.707106781186548,0.707106781186547));
#470=DIRECTION($,(1.,-1.11022302462516E-016,0.));
#471=DIRECTION($,(-1.,1.11022302462516E-016,0.));
#472=DIRECTION('center_axis',(0.,0.,-1.));
#473=DIRECTION('ref_axis',(-0.707106781186548,0.707106781186548,0.));
#474=DIRECTION('center_axis',(0.,0.,1.));
#475=DIRECTION('ref_axis',(-0.707106781186548,0.707106781186548,0.));
#476=DIRECTION('center_axis',(0.,0.,-1.));
#477=DIRECTION('ref_axis',(-0.707106781186547,0.707106781186547,0.));
#478=DIRECTION('center_axis',(0.,0.,1.));
#479=DIRECTION('ref_axis',(0.707106781186548,-0.707106781186548,0.));
#480=DIRECTION($,(0.,0.,-1.));
#481=DIRECTION('center_axis',(0.,0.,1.));
#482=DIRECTION('ref_axis',(0.707106781186548,-0.707106781186548,0.));
#483=DIRECTION($,(0.,0.,1.));
#484=DIRECTION('center_axis',(-1.11022302462516E-016,-1.,0.));
#485=DIRECTION('ref_axis',(1.,0.,0.));
#486=DIRECTION($,(0.,0.,1.));
#487=DIRECTION($,(1.,-1.11022302462516E-016,0.));
#488=DIRECTION('center_axis',(0.,0.,1.));
#489=DIRECTION('ref_axis',(-0.707106781186548,-0.707106781186548,0.));
#490=DIRECTION($,(0.,0.,-1.));
#491=DIRECTION('center_axis',(0.,0.,1.));
#492=DIRECTION('ref_axis',(-0.707106781186548,-0.707106781186548,0.));
#493=DIRECTION('center_axis',(-1.,0.,0.));
#494=DIRECTION('ref_axis',(0.,-1.,0.));
#495=DIRECTION($,(0.,0.,1.));
#496=DIRECTION($,(0.,-1.,0.));
#497=DIRECTION('center_axis',(0.,0.,1.));
#498=DIRECTION('ref_axis',(1.,0.,0.));
#499=DIRECTION('center_axis',(0.,0.,1.));
#500=DIRECTION('ref_axis',(-1.,0.,0.));
#501=DIRECTION('center_axis',(0.,0.,-1.));
#502=DIRECTION('ref_axis',(1.,0.,0.));
#503=DIRECTION('center_axis',(0.,0.,-1.));
#504=DIRECTION('ref_axis',(1.,0.,0.));
#505=DIRECTION('center_axis',(0.,0.,1.));
#506=DIRECTION('ref_axis',(1.,0.,0.));
#507=DIRECTION('center_axis',(0.,0.,-1.));
#508=DIRECTION('ref_axis',(1.,0.,0.));
#509=DIRECTION('center_axis',(0.,0.,1.));
#510=DIRECTION('ref_axis',(1.,0.,0.));
#511=DIRECTION('center_axis',(0.,0.,-1.));
#512=DIRECTION('ref_axis',(-1.,0.,0.));
#513=DIRECTION('center_axis',(0.,0.,1.));
#514=DIRECTION('ref_axis',(1.,0.,0.));
#515=DIRECTION('center_axis',(0.,0.,1.));
#516=DIRECTION('ref_axis',(-0.707106781186548,0.707106781186548,0.));
#517=DIRECTION($,(-1.,1.11022302462516E-016,0.));
#518=DIRECTION('center_axis',(0.,0.,1.));
#519=DIRECTION('ref_axis',(0.707106781186548,0.707106781186547,0.));
#520=DIRECTION($,(1.66533453693773E-016,1.,0.));
#521=DIRECTION('center_axis',(0.,0.,1.));
#522=DIRECTION('ref_axis',(1.,0.,0.));
#523=DIRECTION('center_axis',(0.,0.,1.));
#524=DIRECTION('ref_axis',(-1.,0.,0.));
#525=DIRECTION('center_axis',(0.,0.,1.));
#526=DIRECTION('ref_axis',(1.,0.,0.));
#527=DIRECTION('center_axis',(0.,0.,1.));
#528=DIRECTION('ref_axis',(1.,0.,0.));
#529=DIRECTION('center_axis',(0.,0.,1.));
#530=DIRECTION('ref_axis',(1.,0.,0.));
#531=DIRECTION('center_axis',(0.,0.,1.));
#532=DIRECTION('ref_axis',(1.,0.,0.));
#533=DIRECTION('center_axis',(0.,0.,1.));
#534=DIRECTION('ref_axis',(1.,0.,0.));
#535=DIRECTION('center_axis',(0.,0.,1.));
#536=DIRECTION('ref_axis',(-0.707106781186548,0.707106781186548,0.));
#537=DIRECTION($,(0.,0.,-1.));
#538=DIRECTION('center_axis',(1.11022302462516E-016,1.,0.));
#539=DIRECTION('ref_axis',(-1.,0.,0.));
#540=DIRECTION($,(0.,0.,1.));
#541=DIRECTION('center_axis',(0.,0.,1.));
#542=DIRECTION('ref_axis',(0.707106781186548,0.707106781186547,0.));
#543=DIRECTION($,(0.,0.,-1.));
#544=DIRECTION('center_axis',(1.,-1.66533453693773E-016,0.));
#545=DIRECTION('ref_axis',(0.,1.,0.));
#546=CARTESIAN_POINT('',(0.,0.,0.));
#547=CARTESIAN_POINT('Origin',(-19.5,10.,14.5));
#548=CARTESIAN_POINT('',(-20.,-16.,14.));
#549=CARTESIAN_POINT('',(-19.,-16.,15.));
#550=CARTESIAN_POINT($,(-20.,-16.,14.));
#551=CARTESIAN_POINT('',(-19.,16.,15.));
#552=CARTESIAN_POINT($,(-19.,10.,15.));
#553=CARTESIAN_POINT('',(-20.,16.,14.));
#554=CARTESIAN_POINT($,(-19.,16.,15.));
#555=CARTESIAN_POINT($,(-20.,10.,14.));
#556=CARTESIAN_POINT('Origin',(-16.,-16.,14.5));
#557=CARTESIAN_POINT('',(-16.,-20.,14.));
#558=CARTESIAN_POINT('Origin',(-16.,-16.,14.));
#559=CARTESIAN_POINT('',(-16.,-19.,15.));
#560=CARTESIAN_POINT($,(-16.,-20.,14.));
#561=CARTESIAN_POINT('Origin',(-16.,-16.,15.));
#562=CARTESIAN_POINT('Origin',(-10.,-19.5,14.5));
#563=CARTESIAN_POINT('',(16.,-20.,14.));
#564=CARTESIAN_POINT('',(16.,-19.,15.));
#565=CARTESIAN_POINT($,(16.,-20.,14.));
#566=CARTESIAN_POINT($,(-10.,-19.,15.));
#567=CARTESIAN_POINT($,(-10.,-20.,14.));
#568=CARTESIAN_POINT('Origin',(16.,-16.,14.5));
#569=CARTESIAN_POINT('',(20.,-16.,14.));
#570=CARTESIAN_POINT('Origin',(16.,-16.,14.));
#571=CARTESIAN_POINT('',(19.,-16.,15.));
#572=CARTESIAN_POINT($,(20.,-16.,14.));
#573=CARTESIAN_POINT('Origin',(16.,-16.,15.));
#574=CARTESIAN_POINT('Origin',(19.5,-10.,14.5));
#575=CARTESIAN_POINT('',(20.,16.,14.));
#576=CARTESIAN_POINT('',(19.,16.,15.));
#577=CARTESIAN_POINT($,(20.,16.,14.));
#578=CARTESIAN_POINT($,(19.,-10.,15.));
#579=CARTESIAN_POINT($,(20.,-10.,14.));
#580=CARTESIAN_POINT('Origin',(16.,16.,14.5));
#581=CARTESIAN_POINT('',(16.,20.,14.));
#582=CARTESIAN_POINT('Origin',(16.,16.,14.));
#583=CARTESIAN_POINT('',(16.,19.,15.));
#584=CARTESIAN_POINT($,(16.,20.,14.));
#585=CARTESIAN_POINT('Origin',(16.,16.,15.));
#586=CARTESIAN_POINT('Origin',(10.,19.5,14.5));
#587=CARTESIAN_POINT('',(-16.,20.,14.));
#588=CARTESIAN_POINT('',(-16.,19.,15.));
#589=CARTESIAN_POINT($,(-16.,20.,14.));
#590=CARTESIAN_POINT($,(10.,19.,15.));
#591=CARTESIAN_POINT($,(10.,20.,14.));
#592=CARTESIAN_POINT('Origin',(-16.,16.,14.5));
#593=CARTESIAN_POINT('Origin',(-16.,16.,14.));
#594=CARTESIAN_POINT('Origin',(-16.,16.,15.));
#595=CARTESIAN_POINT('Origin',(16.,-16.,0.));
#596=CARTESIAN_POINT('',(16.,-20.,0.));
#597=CARTESIAN_POINT($,(16.,-20.,0.));
#598=CARTESIAN_POINT('',(20.,-16.,0.));
#599=CARTESIAN_POINT('Origin',(16.,-16.,0.));
#600=CARTESIAN_POINT($,(20.,-16.,0.));
#601=CARTESIAN_POINT('Origin',(-20.,-20.,0.));
#602=CARTESIAN_POINT('',(-16.,-20.,0.));
#603=CARTESIAN_POINT($,(-16.,-20.,0.));
#604=CARTESIAN_POINT($,(-20.,-20.,0.));
#605=CARTESIAN_POINT('Origin',(-16.,-16.,0.));
#606=CARTESIAN_POINT('',(-20.,-16.,0.));
#607=CARTESIAN_POINT($,(-20.,-16.,0.));
#608=CARTESIAN_POINT('Origin',(-16.,-16.,0.));
#609=CARTESIAN_POINT('Origin',(-20.,20.,0.));
#610=CARTESIAN_POINT('',(-20.,16.,0.));
#611=CARTESIAN_POINT($,(-20.,16.,0.));
#612=CARTESIAN_POINT($,(-20.,20.,0.));
#613=CARTESIAN_POINT('Origin',(-2.22044604925031E-015,0.,15.));
#614=CARTESIAN_POINT('',(4.988,-13.,15.));
#615=CARTESIAN_POINT('Origin',(0.,-13.,15.));
#616=CARTESIAN_POINT('',(7.,0.,15.));
#617=CARTESIAN_POINT('Origin',(0.,0.,15.));
#618=CARTESIAN_POINT('Origin',(0.,-13.,0.4));
#619=CARTESIAN_POINT('',(-4.188,-13.,0.800000000000001));
#620=CARTESIAN_POINT('Origin',(0.,-13.,0.800000000000001));
#621=CARTESIAN_POINT('',(-4.988,-13.,0.));
#622=CARTESIAN_POINT('Origin',(0.,-13.,0.));
#623=CARTESIAN_POINT('Origin',(0.,-13.,-43.5234995535981));
#624=CARTESIAN_POINT('',(4.188,-13.,14.2));
#625=CARTESIAN_POINT('Origin',(0.,-13.,14.2));
#626=CARTESIAN_POINT('Origin',(-1.66533453693774E-015,0.,0.));
#627=CARTESIAN_POINT('',(-16.,20.,0.));
#628=CARTESIAN_POINT('Origin',(-16.,16.,0.));
#629=CARTESIAN_POINT('',(16.,20.,0.));
#630=CARTESIAN_POINT($,(20.,20.,0.));
#631=CARTESIAN_POINT('',(20.,16.,0.));
#632=CARTESIAN_POINT('Origin',(16.,16.,0.));
#633=CARTESIAN_POINT($,(20.,-20.,0.));
#634=CARTESIAN_POINT('',(-4.5,-5.51091059616309E-016,0.));
#635=CARTESIAN_POINT('Origin',(0.,0.,0.));
#636=CARTESIAN_POINT('Origin',(0.,-13.,14.6));
#637=CARTESIAN_POINT('Origin',(0.,0.,6.));
#638=CARTESIAN_POINT('',(7.,0.,6.));
#639=CARTESIAN_POINT('Origin',(0.,0.,6.));
#640=CARTESIAN_POINT('',(-4.5,-5.51091059616309E-016,6.));
#641=CARTESIAN_POINT('Origin',(0.,0.,6.));
#642=CARTESIAN_POINT('Origin',(0.,0.,10.5));
#643=CARTESIAN_POINT('Origin',(0.,0.,-43.5234995535981));
#644=CARTESIAN_POINT('Origin',(-16.,16.,0.));
#645=CARTESIAN_POINT($,(-16.,20.,0.));
#646=CARTESIAN_POINT('Origin',(20.,20.,0.));
#647=CARTESIAN_POINT($,(16.,20.,0.));
#648=CARTESIAN_POINT('Origin',(16.,16.,0.));
#649=CARTESIAN_POINT($,(20.,16.,0.));
#650=CARTESIAN_POINT('Origin',(20.,-20.,0.));
#651=UNCERTAINTY_MEASURE_WITH_UNIT(LENGTH_MEASURE(0.01),#653,
'DISTANCE_ACCURACY_VALUE',
'Maximum model space distance between geometric entities at asserted c
onnectivities');
#652=(
GEOMETRIC_REPRESENTATION_CONTEXT(3)
GLOBAL_UNCERTAINTY_ASSIGNED_CONTEXT((#651))
GLOBAL_UNIT_ASSIGNED_CONTEXT((#653,#656,#654))
REPRESENTATION_CONTEXT('','3D')
);
#653=(
LENGTH_UNIT()
NAMED_UNIT(*)
SI_UNIT(.MILLI.,.METRE.)
);
#654=(
NAMED_UNIT(*)
SI_UNIT($,.STERADIAN.)
SOLID_ANGLE_UNIT()
);
#655=DIMENSIONAL_EXPONENTS(0.,0.,0.,0.,0.,0.,0.);
#656=(
CONVERSION_BASED_UNIT('degree',#658)
NAMED_UNIT(#655)
PLANE_ANGLE_UNIT()
);
#657=(
NAMED_UNIT(*)
PLANE_ANGLE_UNIT()
SI_UNIT($,.RADIAN.)
);
#658=PLANE_ANGLE_MEASURE_WITH_UNIT(PLANE_ANGLE_MEASURE(0.01745329252),#657);
#659=SHAPE_DEFINITION_REPRESENTATION(#660,#661);
#660=PRODUCT_DEFINITION_SHAPE('',$,#663);
#661=SHAPE_REPRESENTATION('',(#383),#652);
#662=PRODUCT_DEFINITION_CONTEXT('3D Mechanical Parts',#666,'design');
#663=PRODUCT_DEFINITION('11599_Kritec_Fu\X\DFplatte_8_40x40_M10_schwar
z','11599_Kritec_Fu\X\DFplatte_8_40x40_M10_schwarz',#664,#662);
#664=PRODUCT_DEFINITION_FORMATION('',$,#668);
#665=APPLICATION_PROTOCOL_DEFINITION('international standard',
'automotive_design',2009,#666);
#666=APPLICATION_CONTEXT(
'Core Data for Automotive Mechanical Design Process');
#667=PRODUCT_CONTEXT('3D Mechanical Parts',#666,'mechanical');
#668=PRODUCT('11599_Kritec_Fu\X\DFplatte_8_40x40_M10_schwarz',
'11599_Kritec_Fu\X\DFplatte_8_40x40_M10_schwarz',$,(#667));
#669=PRESENTATION_STYLE_ASSIGNMENT((#670));
#670=SURFACE_STYLE_USAGE(.BOTH.,#671);
#671=SURFACE_SIDE_STYLE($,(#672));
#672=SURFACE_STYLE_FILL_AREA(#673);
#673=FILL_AREA_STYLE($,(#674));
#674=FILL_AREA_STYLE_COLOUR($,#675);
#675=COLOUR_RGB('',0.0196078431372549,0.0196078431372549,0.0196078431372549);
ENDSEC;
END-ISO-10303-21;
