ISO-10303-21;
HEADER;
/* Generated by software containing ST-Developer
 * from STEP Tools, Inc. (www.steptools.com) 
 */

FILE_DESCRIPTION(
/* description */ (
'KriTec Stahlwinkel 8 40x40x40 mit Senkungen, verzinkt'),
/* implementation_level */ '2;1');

FILE_NAME(
/* name */ 
'C:\\Arbeitsordner\\Designs\\Kuhlemann\\neuteile\\11487\\11487_KriTec_
Stahlwinkel_8_40x40x40_mit_Senkungen_verzinkt.stp',
/* time_stamp */ '2023-02-02T10:29:08+01:00',
/* author */ ('Nell'),
/* organization */ ('TraceParts S.A.'),
/* preprocessor_version */ 'ST-DEVELOPER v17',
/* originating_system */ 'Autodesk Inventor 2018',
/* authorisation */ ' ');

FILE_SCHEMA (('AUTOMOTIVE_DESIGN { 1 0 10303 214 3 1 1 }'));
ENDSEC;

DATA;
#10=MECHANICAL_DESIGN_GEOMETRIC_PRESENTATION_REPRESENTATION('',(#13),#443);
#11=SHAPE_REPRESENTATION_RELATIONSHIP('SRR','None',#450,#12);
#12=ADVANCED_BREP_SHAPE_REPRESENTATION('',(#14),#442);
#13=STYLED_ITEM('',(#459),#14);
#14=MANIFOLD_SOLID_BREP('Volumenk\X\F6rper1',#253);
#15=FACE_BOUND('',#49,.T.);
#16=FACE_BOUND('',#51,.T.);
#17=FACE_BOUND('',#54,.T.);
#18=FACE_BOUND('',#56,.T.);
#19=PLANE('',#289);
#20=PLANE('',#290);
#21=PLANE('',#291);
#22=PLANE('',#292);
#23=PLANE('',#293);
#24=PLANE('',#294);
#25=PLANE('',#295);
#26=PLANE('',#296);
#27=CYLINDRICAL_SURFACE('',#283,4.2);
#28=CYLINDRICAL_SURFACE('',#286,4.2);
#29=FACE_OUTER_BOUND('',#41,.T.);
#30=FACE_OUTER_BOUND('',#42,.T.);
#31=FACE_OUTER_BOUND('',#43,.T.);
#32=FACE_OUTER_BOUND('',#44,.T.);
#33=FACE_OUTER_BOUND('',#45,.T.);
#34=FACE_OUTER_BOUND('',#46,.T.);
#35=FACE_OUTER_BOUND('',#47,.T.);
#36=FACE_OUTER_BOUND('',#48,.T.);
#37=FACE_OUTER_BOUND('',#50,.T.);
#38=FACE_OUTER_BOUND('',#52,.T.);
#39=FACE_OUTER_BOUND('',#53,.T.);
#40=FACE_OUTER_BOUND('',#55,.T.);
#41=EDGE_LOOP('',(#171,#172,#173,#174,#175,#176));
#42=EDGE_LOOP('',(#177,#178,#179,#180,#181,#182));
#43=EDGE_LOOP('',(#183,#184,#185,#186,#187,#188));
#44=EDGE_LOOP('',(#189,#190,#191,#192,#193,#194));
#45=EDGE_LOOP('',(#195,#196,#197,#198));
#46=EDGE_LOOP('',(#199,#200,#201,#202,#203,#204));
#47=EDGE_LOOP('',(#205,#206,#207,#208,#209,#210));
#48=EDGE_LOOP('',(#211,#212,#213,#214));
#49=EDGE_LOOP('',(#215,#216));
#50=EDGE_LOOP('',(#217,#218,#219,#220));
#51=EDGE_LOOP('',(#221,#222));
#52=EDGE_LOOP('',(#223,#224,#225,#226));
#53=EDGE_LOOP('',(#227,#228,#229,#230));
#54=EDGE_LOOP('',(#231,#232));
#55=EDGE_LOOP('',(#233,#234,#235,#236));
#56=EDGE_LOOP('',(#237,#238));
#57=LINE('',#376,#79);
#58=LINE('',#386,#80);
#59=LINE('',#392,#81);
#60=LINE('',#398,#82);
#61=LINE('',#405,#83);
#62=LINE('',#407,#84);
#63=LINE('',#409,#85);
#64=LINE('',#410,#86);
#65=LINE('',#414,#87);
#66=LINE('',#416,#88);
#67=LINE('',#418,#89);
#68=LINE('',#419,#90);
#69=LINE('',#420,#91);
#70=LINE('',#424,#92);
#71=LINE('',#426,#93);
#72=LINE('',#427,#94);
#73=LINE('',#429,#95);
#74=LINE('',#430,#96);
#75=LINE('',#432,#97);
#76=LINE('',#433,#98);
#77=LINE('',#436,#99);
#78=LINE('',#438,#100);
#79=VECTOR('',#305,4.2);
#80=VECTOR('',#316,4.2);
#81=VECTOR('',#323,4.2);
#82=VECTOR('',#330,4.2);
#83=VECTOR('',#337,1000.);
#84=VECTOR('',#338,1000.);
#85=VECTOR('',#339,1000.);
#86=VECTOR('',#340,1000.);
#87=VECTOR('',#343,1000.);
#88=VECTOR('',#344,1000.);
#89=VECTOR('',#345,1000.);
#90=VECTOR('',#346,1000.);
#91=VECTOR('',#347,1000.);
#92=VECTOR('',#350,1000.);
#93=VECTOR('',#351,1000.);
#94=VECTOR('',#352,1000.);
#95=VECTOR('',#353,1000.);
#96=VECTOR('',#354,1000.);
#97=VECTOR('',#357,1000.);
#98=VECTOR('',#358,1000.);
#99=VECTOR('',#363,1000.);
#100=VECTOR('',#366,1000.);
#101=CIRCLE('',#274,4.2);
#102=CIRCLE('',#275,4.2);
#103=CIRCLE('',#276,8.75000000000003);
#104=CIRCLE('',#277,8.75000000000003);
#105=CIRCLE('',#279,4.2);
#106=CIRCLE('',#280,4.2);
#107=CIRCLE('',#281,8.75000000000003);
#108=CIRCLE('',#282,8.75000000000003);
#109=CIRCLE('',#284,4.2);
#110=CIRCLE('',#285,4.2);
#111=CIRCLE('',#287,4.2);
#112=CIRCLE('',#288,4.2);
#113=VERTEX_POINT('',#371);
#114=VERTEX_POINT('',#372);
#115=VERTEX_POINT('',#375);
#116=VERTEX_POINT('',#377);
#117=VERTEX_POINT('',#381);
#118=VERTEX_POINT('',#382);
#119=VERTEX_POINT('',#385);
#120=VERTEX_POINT('',#387);
#121=VERTEX_POINT('',#391);
#122=VERTEX_POINT('',#393);
#123=VERTEX_POINT('',#397);
#124=VERTEX_POINT('',#399);
#125=VERTEX_POINT('',#403);
#126=VERTEX_POINT('',#404);
#127=VERTEX_POINT('',#406);
#128=VERTEX_POINT('',#408);
#129=VERTEX_POINT('',#412);
#130=VERTEX_POINT('',#413);
#131=VERTEX_POINT('',#415);
#132=VERTEX_POINT('',#417);
#133=VERTEX_POINT('',#422);
#134=VERTEX_POINT('',#423);
#135=VERTEX_POINT('',#425);
#136=VERTEX_POINT('',#428);
#137=EDGE_CURVE('',#113,#114,#101,.T.);
#138=EDGE_CURVE('',#114,#113,#102,.T.);
#139=EDGE_CURVE('',#114,#115,#57,.T.);
#140=EDGE_CURVE('',#116,#115,#103,.T.);
#141=EDGE_CURVE('',#115,#116,#104,.T.);
#142=EDGE_CURVE('',#117,#118,#105,.T.);
#143=EDGE_CURVE('',#118,#117,#106,.T.);
#144=EDGE_CURVE('',#118,#119,#58,.T.);
#145=EDGE_CURVE('',#120,#119,#107,.T.);
#146=EDGE_CURVE('',#119,#120,#108,.T.);
#147=EDGE_CURVE('',#118,#121,#59,.T.);
#148=EDGE_CURVE('',#122,#121,#109,.T.);
#149=EDGE_CURVE('',#121,#122,#110,.T.);
#150=EDGE_CURVE('',#114,#123,#60,.T.);
#151=EDGE_CURVE('',#124,#123,#111,.T.);
#152=EDGE_CURVE('',#123,#124,#112,.T.);
#153=EDGE_CURVE('',#125,#126,#61,.T.);
#154=EDGE_CURVE('',#127,#125,#62,.T.);
#155=EDGE_CURVE('',#127,#128,#63,.T.);
#156=EDGE_CURVE('',#128,#126,#64,.T.);
#157=EDGE_CURVE('',#129,#130,#65,.T.);
#158=EDGE_CURVE('',#129,#131,#66,.T.);
#159=EDGE_CURVE('',#131,#132,#67,.T.);
#160=EDGE_CURVE('',#132,#127,#68,.T.);
#161=EDGE_CURVE('',#130,#125,#69,.T.);
#162=EDGE_CURVE('',#133,#134,#70,.T.);
#163=EDGE_CURVE('',#133,#135,#71,.T.);
#164=EDGE_CURVE('',#135,#126,#72,.T.);
#165=EDGE_CURVE('',#136,#128,#73,.T.);
#166=EDGE_CURVE('',#134,#136,#74,.T.);
#167=EDGE_CURVE('',#132,#136,#75,.T.);
#168=EDGE_CURVE('',#131,#134,#76,.T.);
#169=EDGE_CURVE('',#129,#133,#77,.T.);
#170=EDGE_CURVE('',#130,#135,#78,.T.);
#171=ORIENTED_EDGE('',*,*,#137,.F.);
#172=ORIENTED_EDGE('',*,*,#138,.F.);
#173=ORIENTED_EDGE('',*,*,#139,.T.);
#174=ORIENTED_EDGE('',*,*,#140,.F.);
#175=ORIENTED_EDGE('',*,*,#141,.F.);
#176=ORIENTED_EDGE('',*,*,#139,.F.);
#177=ORIENTED_EDGE('',*,*,#142,.F.);
#178=ORIENTED_EDGE('',*,*,#143,.F.);
#179=ORIENTED_EDGE('',*,*,#144,.T.);
#180=ORIENTED_EDGE('',*,*,#145,.F.);
#181=ORIENTED_EDGE('',*,*,#146,.F.);
#182=ORIENTED_EDGE('',*,*,#144,.F.);
#183=ORIENTED_EDGE('',*,*,#142,.T.);
#184=ORIENTED_EDGE('',*,*,#147,.T.);
#185=ORIENTED_EDGE('',*,*,#148,.F.);
#186=ORIENTED_EDGE('',*,*,#149,.F.);
#187=ORIENTED_EDGE('',*,*,#147,.F.);
#188=ORIENTED_EDGE('',*,*,#143,.T.);
#189=ORIENTED_EDGE('',*,*,#137,.T.);
#190=ORIENTED_EDGE('',*,*,#150,.T.);
#191=ORIENTED_EDGE('',*,*,#151,.F.);
#192=ORIENTED_EDGE('',*,*,#152,.F.);
#193=ORIENTED_EDGE('',*,*,#150,.F.);
#194=ORIENTED_EDGE('',*,*,#138,.T.);
#195=ORIENTED_EDGE('',*,*,#153,.F.);
#196=ORIENTED_EDGE('',*,*,#154,.F.);
#197=ORIENTED_EDGE('',*,*,#155,.T.);
#198=ORIENTED_EDGE('',*,*,#156,.T.);
#199=ORIENTED_EDGE('',*,*,#157,.F.);
#200=ORIENTED_EDGE('',*,*,#158,.T.);
#201=ORIENTED_EDGE('',*,*,#159,.T.);
#202=ORIENTED_EDGE('',*,*,#160,.T.);
#203=ORIENTED_EDGE('',*,*,#154,.T.);
#204=ORIENTED_EDGE('',*,*,#161,.F.);
#205=ORIENTED_EDGE('',*,*,#162,.F.);
#206=ORIENTED_EDGE('',*,*,#163,.T.);
#207=ORIENTED_EDGE('',*,*,#164,.T.);
#208=ORIENTED_EDGE('',*,*,#156,.F.);
#209=ORIENTED_EDGE('',*,*,#165,.F.);
#210=ORIENTED_EDGE('',*,*,#166,.F.);
#211=ORIENTED_EDGE('',*,*,#166,.T.);
#212=ORIENTED_EDGE('',*,*,#167,.F.);
#213=ORIENTED_EDGE('',*,*,#159,.F.);
#214=ORIENTED_EDGE('',*,*,#168,.T.);
#215=ORIENTED_EDGE('',*,*,#148,.T.);
#216=ORIENTED_EDGE('',*,*,#149,.T.);
#217=ORIENTED_EDGE('',*,*,#165,.T.);
#218=ORIENTED_EDGE('',*,*,#155,.F.);
#219=ORIENTED_EDGE('',*,*,#160,.F.);
#220=ORIENTED_EDGE('',*,*,#167,.T.);
#221=ORIENTED_EDGE('',*,*,#151,.T.);
#222=ORIENTED_EDGE('',*,*,#152,.T.);
#223=ORIENTED_EDGE('',*,*,#158,.F.);
#224=ORIENTED_EDGE('',*,*,#169,.T.);
#225=ORIENTED_EDGE('',*,*,#162,.T.);
#226=ORIENTED_EDGE('',*,*,#168,.F.);
#227=ORIENTED_EDGE('',*,*,#163,.F.);
#228=ORIENTED_EDGE('',*,*,#169,.F.);
#229=ORIENTED_EDGE('',*,*,#157,.T.);
#230=ORIENTED_EDGE('',*,*,#170,.T.);
#231=ORIENTED_EDGE('',*,*,#145,.T.);
#232=ORIENTED_EDGE('',*,*,#146,.T.);
#233=ORIENTED_EDGE('',*,*,#164,.F.);
#234=ORIENTED_EDGE('',*,*,#170,.F.);
#235=ORIENTED_EDGE('',*,*,#161,.T.);
#236=ORIENTED_EDGE('',*,*,#153,.T.);
#237=ORIENTED_EDGE('',*,*,#140,.T.);
#238=ORIENTED_EDGE('',*,*,#141,.T.);
#239=CONICAL_SURFACE('',#273,4.2,0.785398163397443);
#240=CONICAL_SURFACE('',#278,4.2,0.785398163397443);
#241=ADVANCED_FACE('',(#29),#239,.F.);
#242=ADVANCED_FACE('',(#30),#240,.F.);
#243=ADVANCED_FACE('',(#31),#27,.F.);
#244=ADVANCED_FACE('',(#32),#28,.F.);
#245=ADVANCED_FACE('',(#33),#19,.F.);
#246=ADVANCED_FACE('',(#34),#20,.F.);
#247=ADVANCED_FACE('',(#35),#21,.T.);
#248=ADVANCED_FACE('',(#36,#15),#22,.F.);
#249=ADVANCED_FACE('',(#37,#16),#23,.F.);
#250=ADVANCED_FACE('',(#38),#24,.F.);
#251=ADVANCED_FACE('',(#39,#17),#25,.T.);
#252=ADVANCED_FACE('',(#40,#18),#26,.T.);
#253=CLOSED_SHELL('',(#241,#242,#243,#244,#245,#246,#247,#248,#249,#250,
#251,#252));
#254=DERIVED_UNIT_ELEMENT(#256,1.);
#255=DERIVED_UNIT_ELEMENT(#445,3.);
#256=(
MASS_UNIT()
NAMED_UNIT(*)
SI_UNIT($,.GRAM.)
);
#257=DERIVED_UNIT((#254,#255));
#258=MEASURE_REPRESENTATION_ITEM('density measure',
POSITIVE_RATIO_MEASURE(7.85),#257);
#259=PROPERTY_DEFINITION_REPRESENTATION(#264,#261);
#260=PROPERTY_DEFINITION_REPRESENTATION(#265,#262);
#261=REPRESENTATION('material name',(#263),#442);
#262=REPRESENTATION('density',(#258),#442);
#263=DESCRIPTIVE_REPRESENTATION_ITEM('Stahl','Stahl');
#264=PROPERTY_DEFINITION('material property','material name',#452);
#265=PROPERTY_DEFINITION('material property','density of part',#452);
#266=DATE_TIME_ROLE('creation_date');
#267=APPLIED_DATE_AND_TIME_ASSIGNMENT(#268,#266,(#452));
#268=DATE_AND_TIME(#269,#270);
#269=CALENDAR_DATE(2017,24,7);
#270=LOCAL_TIME(15,28,26.,#271);
#271=COORDINATED_UNIVERSAL_TIME_OFFSET(0,0,.BEHIND.);
#272=AXIS2_PLACEMENT_3D('placement',#369,#297,#298);
#273=AXIS2_PLACEMENT_3D('',#370,#299,#300);
#274=AXIS2_PLACEMENT_3D('',#373,#301,#302);
#275=AXIS2_PLACEMENT_3D('',#374,#303,#304);
#276=AXIS2_PLACEMENT_3D('',#378,#306,#307);
#277=AXIS2_PLACEMENT_3D('',#379,#308,#309);
#278=AXIS2_PLACEMENT_3D('',#380,#310,#311);
#279=AXIS2_PLACEMENT_3D('',#383,#312,#313);
#280=AXIS2_PLACEMENT_3D('',#384,#314,#315);
#281=AXIS2_PLACEMENT_3D('',#388,#317,#318);
#282=AXIS2_PLACEMENT_3D('',#389,#319,#320);
#283=AXIS2_PLACEMENT_3D('',#390,#321,#322);
#284=AXIS2_PLACEMENT_3D('',#394,#324,#325);
#285=AXIS2_PLACEMENT_3D('',#395,#326,#327);
#286=AXIS2_PLACEMENT_3D('',#396,#328,#329);
#287=AXIS2_PLACEMENT_3D('',#400,#331,#332);
#288=AXIS2_PLACEMENT_3D('',#401,#333,#334);
#289=AXIS2_PLACEMENT_3D('',#402,#335,#336);
#290=AXIS2_PLACEMENT_3D('',#411,#341,#342);
#291=AXIS2_PLACEMENT_3D('',#421,#348,#349);
#292=AXIS2_PLACEMENT_3D('',#431,#355,#356);
#293=AXIS2_PLACEMENT_3D('',#434,#359,#360);
#294=AXIS2_PLACEMENT_3D('',#435,#361,#362);
#295=AXIS2_PLACEMENT_3D('',#437,#364,#365);
#296=AXIS2_PLACEMENT_3D('',#439,#367,#368);
#297=DIRECTION('axis',(0.,0.,1.));
#298=DIRECTION('refdir',(1.,0.,0.));
#299=DIRECTION('center_axis',(0.,1.,0.));
#300=DIRECTION('ref_axis',(0.,0.,1.));
#301=DIRECTION('center_axis',(0.,1.,0.));
#302=DIRECTION('ref_axis',(0.,0.,1.));
#303=DIRECTION('center_axis',(0.,1.,0.));
#304=DIRECTION('ref_axis',(0.,0.,1.));
#305=DIRECTION('',(-8.65956056235489E-17,0.707106781186551,-0.707106781186544));
#306=DIRECTION('center_axis',(0.,-1.,0.));
#307=DIRECTION('ref_axis',(0.,0.,1.));
#308=DIRECTION('center_axis',(0.,-1.,0.));
#309=DIRECTION('ref_axis',(0.,0.,1.));
#310=DIRECTION('center_axis',(1.,0.,0.));
#311=DIRECTION('ref_axis',(0.,0.,-1.));
#312=DIRECTION('center_axis',(1.,0.,0.));
#313=DIRECTION('ref_axis',(0.,0.,-1.));
#314=DIRECTION('center_axis',(1.,0.,0.));
#315=DIRECTION('ref_axis',(0.,0.,-1.));
#316=DIRECTION('',(0.707106781186551,-8.65956056235489E-17,0.707106781186544));
#317=DIRECTION('center_axis',(-1.,0.,0.));
#318=DIRECTION('ref_axis',(0.,0.,-1.));
#319=DIRECTION('center_axis',(-1.,0.,0.));
#320=DIRECTION('ref_axis',(0.,0.,-1.));
#321=DIRECTION('center_axis',(-1.,0.,0.));
#322=DIRECTION('ref_axis',(0.,0.,-1.));
#323=DIRECTION('',(-1.,0.,0.));
#324=DIRECTION('center_axis',(1.,0.,0.));
#325=DIRECTION('ref_axis',(0.,0.,-1.));
#326=DIRECTION('center_axis',(1.,0.,0.));
#327=DIRECTION('ref_axis',(0.,0.,-1.));
#328=DIRECTION('center_axis',(0.,-1.,0.));
#329=DIRECTION('ref_axis',(0.,0.,1.));
#330=DIRECTION('',(0.,-1.,0.));
#331=DIRECTION('center_axis',(0.,1.,0.));
#332=DIRECTION('ref_axis',(0.,0.,1.));
#333=DIRECTION('center_axis',(0.,1.,0.));
#334=DIRECTION('ref_axis',(0.,0.,1.));
#335=DIRECTION('center_axis',(-1.,0.,0.));
#336=DIRECTION('ref_axis',(0.,0.,1.));
#337=DIRECTION('',(0.,0.,-1.));
#338=DIRECTION('',(0.,1.,0.));
#339=DIRECTION('',(0.,0.,-1.));
#340=DIRECTION('',(0.,1.,0.));
#341=DIRECTION('center_axis',(0.,0.,-1.));
#342=DIRECTION('ref_axis',(0.,-1.,0.));
#343=DIRECTION('',(0.,-1.,0.));
#344=DIRECTION('',(-1.,0.,0.));
#345=DIRECTION('',(0.,-1.,0.));
#346=DIRECTION('',(1.,0.,0.));
#347=DIRECTION('',(1.,0.,0.));
#348=DIRECTION('center_axis',(0.,0.,-1.));
#349=DIRECTION('ref_axis',(0.,-1.,0.));
#350=DIRECTION('',(-1.,0.,0.));
#351=DIRECTION('',(0.,-1.,0.));
#352=DIRECTION('',(1.,0.,0.));
#353=DIRECTION('',(1.,0.,0.));
#354=DIRECTION('',(0.,-1.,0.));
#355=DIRECTION('center_axis',(1.,0.,0.));
#356=DIRECTION('ref_axis',(0.,1.,0.));
#357=DIRECTION('',(0.,0.,-1.));
#358=DIRECTION('',(0.,0.,-1.));
#359=DIRECTION('center_axis',(0.,1.,0.));
#360=DIRECTION('ref_axis',(1.,0.,0.));
#361=DIRECTION('center_axis',(0.,-1.,0.));
#362=DIRECTION('ref_axis',(0.,0.,-1.));
#363=DIRECTION('',(0.,0.,-1.));
#364=DIRECTION('center_axis',(1.,0.,0.));
#365=DIRECTION('ref_axis',(0.,1.,0.));
#366=DIRECTION('',(0.,0.,-1.));
#367=DIRECTION('center_axis',(0.,1.,0.));
#368=DIRECTION('ref_axis',(1.,0.,0.));
#369=CARTESIAN_POINT('',(0.,0.,0.));
#370=CARTESIAN_POINT('Origin',(20.,0.449999999999919,20.));
#371=CARTESIAN_POINT('',(20.,0.449999999999918,24.2));
#372=CARTESIAN_POINT('',(20.,0.449999999999918,15.8));
#373=CARTESIAN_POINT('Origin',(20.,0.449999999999918,20.));
#374=CARTESIAN_POINT('Origin',(20.,0.449999999999918,20.));
#375=CARTESIAN_POINT('',(20.,5.,11.25));
#376=CARTESIAN_POINT('',(20.,0.449999999999919,15.8));
#377=CARTESIAN_POINT('',(20.,5.,28.75));
#378=CARTESIAN_POINT('Origin',(20.,5.,20.));
#379=CARTESIAN_POINT('Origin',(20.,5.,20.));
#380=CARTESIAN_POINT('Origin',(0.449999999999919,20.,20.));
#381=CARTESIAN_POINT('',(0.449999999999919,20.,15.8));
#382=CARTESIAN_POINT('',(0.449999999999919,20.,24.2));
#383=CARTESIAN_POINT('Origin',(0.449999999999919,20.,20.));
#384=CARTESIAN_POINT('Origin',(0.449999999999919,20.,20.));
#385=CARTESIAN_POINT('',(5.,20.,28.75));
#386=CARTESIAN_POINT('',(0.449999999999919,20.,24.2));
#387=CARTESIAN_POINT('',(5.,20.,11.25));
#388=CARTESIAN_POINT('Origin',(5.,20.,20.));
#389=CARTESIAN_POINT('Origin',(5.,20.,20.));
#390=CARTESIAN_POINT('Origin',(0.,20.,20.));
#391=CARTESIAN_POINT('',(0.,20.,24.2));
#392=CARTESIAN_POINT('',(0.,20.,24.2));
#393=CARTESIAN_POINT('',(0.,20.,15.8));
#394=CARTESIAN_POINT('Origin',(0.,20.,20.));
#395=CARTESIAN_POINT('Origin',(0.,20.,20.));
#396=CARTESIAN_POINT('Origin',(20.,0.,20.));
#397=CARTESIAN_POINT('',(20.,0.,15.8));
#398=CARTESIAN_POINT('',(20.,0.,15.8));
#399=CARTESIAN_POINT('',(20.,0.,24.2));
#400=CARTESIAN_POINT('Origin',(20.,0.,20.));
#401=CARTESIAN_POINT('Origin',(20.,0.,20.));
#402=CARTESIAN_POINT('Origin',(40.,0.,40.));
#403=CARTESIAN_POINT('',(40.,5.,40.));
#404=CARTESIAN_POINT('',(40.,5.,0.));
#405=CARTESIAN_POINT('',(40.,5.,40.));
#406=CARTESIAN_POINT('',(40.,0.,40.));
#407=CARTESIAN_POINT('',(40.,0.,40.));
#408=CARTESIAN_POINT('',(40.,0.,0.));
#409=CARTESIAN_POINT('',(40.,0.,40.));
#410=CARTESIAN_POINT('',(40.,0.,0.));
#411=CARTESIAN_POINT('Origin',(0.,40.,40.));
#412=CARTESIAN_POINT('',(5.,40.,40.));
#413=CARTESIAN_POINT('',(5.,5.,40.));
#414=CARTESIAN_POINT('',(5.,40.,40.));
#415=CARTESIAN_POINT('',(0.,40.,40.));
#416=CARTESIAN_POINT('',(0.,40.,40.));
#417=CARTESIAN_POINT('',(0.,0.,40.));
#418=CARTESIAN_POINT('',(0.,0.,40.));
#419=CARTESIAN_POINT('',(0.,0.,40.));
#420=CARTESIAN_POINT('',(0.,5.,40.));
#421=CARTESIAN_POINT('Origin',(0.,40.,0.));
#422=CARTESIAN_POINT('',(5.,40.,0.));
#423=CARTESIAN_POINT('',(0.,40.,0.));
#424=CARTESIAN_POINT('',(0.,40.,0.));
#425=CARTESIAN_POINT('',(5.,5.,0.));
#426=CARTESIAN_POINT('',(5.,40.,0.));
#427=CARTESIAN_POINT('',(0.,5.,0.));
#428=CARTESIAN_POINT('',(0.,0.,0.));
#429=CARTESIAN_POINT('',(0.,0.,0.));
#430=CARTESIAN_POINT('',(0.,0.,0.));
#431=CARTESIAN_POINT('Origin',(0.,0.,40.));
#432=CARTESIAN_POINT('',(0.,0.,40.));
#433=CARTESIAN_POINT('',(0.,40.,40.));
#434=CARTESIAN_POINT('Origin',(0.,0.,40.));
#435=CARTESIAN_POINT('Origin',(0.,40.,40.));
#436=CARTESIAN_POINT('',(5.,40.,40.));
#437=CARTESIAN_POINT('Origin',(5.,0.,40.));
#438=CARTESIAN_POINT('',(5.,5.,40.));
#439=CARTESIAN_POINT('Origin',(0.,5.,40.));
#440=UNCERTAINTY_MEASURE_WITH_UNIT(LENGTH_MEASURE(0.01),#444,
'DISTANCE_ACCURACY_VALUE',
'Maximum model space distance between geometric entities at asserted c
onnectivities');
#441=UNCERTAINTY_MEASURE_WITH_UNIT(LENGTH_MEASURE(0.01),#444,
'DISTANCE_ACCURACY_VALUE',
'Maximum model space distance between geometric entities at asserted c
onnectivities');
#442=(
GEOMETRIC_REPRESENTATION_CONTEXT(3)
GLOBAL_UNCERTAINTY_ASSIGNED_CONTEXT((#440))
GLOBAL_UNIT_ASSIGNED_CONTEXT((#444,#447,#446))
REPRESENTATION_CONTEXT('','3D')
);
#443=(
GEOMETRIC_REPRESENTATION_CONTEXT(3)
GLOBAL_UNCERTAINTY_ASSIGNED_CONTEXT((#441))
GLOBAL_UNIT_ASSIGNED_CONTEXT((#444,#447,#446))
REPRESENTATION_CONTEXT('','3D')
);
#444=(
LENGTH_UNIT()
NAMED_UNIT(*)
SI_UNIT(.MILLI.,.METRE.)
);
#445=(
LENGTH_UNIT()
NAMED_UNIT(*)
SI_UNIT(.CENTI.,.METRE.)
);
#446=(
NAMED_UNIT(*)
SI_UNIT($,.STERADIAN.)
SOLID_ANGLE_UNIT()
);
#447=(
NAMED_UNIT(*)
PLANE_ANGLE_UNIT()
SI_UNIT($,.RADIAN.)
);
#448=SHAPE_DEFINITION_REPRESENTATION(#449,#450);
#449=PRODUCT_DEFINITION_SHAPE('',$,#452);
#450=SHAPE_REPRESENTATION('',(#272),#442);
#451=PRODUCT_DEFINITION_CONTEXT('part definition',#456,'design');
#452=PRODUCT_DEFINITION('11487',
'11487_KriTec_Stahlwinkel_8_40x40x40_mit_Senkungen_verzinkt',#453,#451);
#453=PRODUCT_DEFINITION_FORMATION(' NONE',$,#458);
#454=PRODUCT_RELATED_PRODUCT_CATEGORY(
'11487_KriTec_Stahlwinkel_8_40x40x40_mit_Senkungen_verzinkt',
'11487_KriTec_Stahlwinkel_8_40x40x40_mit_Senkungen_verzinkt',(#458));
#455=APPLICATION_PROTOCOL_DEFINITION('international standard',
'automotive_design',2009,#456);
#456=APPLICATION_CONTEXT(
'Core Data for Automotive Mechanical Design Process');
#457=PRODUCT_CONTEXT('part definition',#456,'mechanical');
#458=PRODUCT('11487',
'11487_KriTec_Stahlwinkel_8_40x40x40_mit_Senkungen_verzinkt',
'KriTec Stahlwinkel 8 40x40x40 mit Senkungen, verzinkt',(#457));
#459=PRESENTATION_STYLE_ASSIGNMENT((#460));
#460=SURFACE_STYLE_USAGE(.BOTH.,#461);
#461=SURFACE_SIDE_STYLE('',(#462));
#462=SURFACE_STYLE_FILL_AREA(#463);
#463=FILL_AREA_STYLE('',(#464));
#464=FILL_AREA_STYLE_COLOUR('',#465);
#465=COLOUR_RGB('',0.956862745098039,0.956862745098039,0.956862745098039);
ENDSEC;
END-ISO-10303-21;
