ISO-10303-21;
HEADER;
/* Generated by software containing ST-Developer
 * from STEP Tools, Inc. (www.steptools.com) 
 */

FILE_DESCRIPTION(
/* description */ ('Aluwinkel 80x80x120'),
/* implementation_level */ '2;1');

FILE_NAME(
/* name */ 
'S:\\Bilder_neu\\11472_KriTec_Srangpresswinkelprofil_natur_80x80\\Inve
ntordateien\\11472_KriTec_Strangpresswinkelprofil_80x80.stp',
/* time_stamp */ '2016-09-08T14:58:17+02:00',
/* author */ ('kostic'),
/* organization */ (''),
/* preprocessor_version */ 'ST-DEVELOPER v16.1',
/* originating_system */ 'Autodesk Inventor 2016',
/* authorisation */ '');

FILE_SCHEMA (('AUTOMOTIVE_DESIGN { 1 0 10303 214 3 1 1 }'));
ENDSEC;

DATA;
#10=MECHANICAL_DESIGN_GEOMETRIC_PRESENTATION_REPRESENTATION('',(#13),#410);
#11=SHAPE_REPRESENTATION_RELATIONSHIP('SRR','None',#419,#12);
#12=ADVANCED_BREP_SHAPE_REPRESENTATION('',(#14),#409);
#13=STYLED_ITEM('',(#428),#14);
#14=MANIFOLD_SOLID_BREP('Volumenk\X\F6rper1',#246);
#15=PLANE('',#251);
#16=PLANE('',#252);
#17=PLANE('',#258);
#18=PLANE('',#261);
#19=PLANE('',#264);
#20=PLANE('',#265);
#21=PLANE('',#266);
#22=PLANE('',#267);
#23=PLANE('',#268);
#24=FACE_OUTER_BOUND('',#37,.T.);
#25=FACE_OUTER_BOUND('',#38,.T.);
#26=FACE_OUTER_BOUND('',#39,.T.);
#27=FACE_OUTER_BOUND('',#40,.T.);
#28=FACE_OUTER_BOUND('',#41,.T.);
#29=FACE_OUTER_BOUND('',#42,.T.);
#30=FACE_OUTER_BOUND('',#43,.T.);
#31=FACE_OUTER_BOUND('',#44,.T.);
#32=FACE_OUTER_BOUND('',#45,.T.);
#33=FACE_OUTER_BOUND('',#46,.T.);
#34=FACE_OUTER_BOUND('',#47,.T.);
#35=FACE_OUTER_BOUND('',#48,.T.);
#36=FACE_OUTER_BOUND('',#49,.T.);
#37=EDGE_LOOP('',(#163,#164,#165,#166));
#38=EDGE_LOOP('',(#167,#168,#169,#170));
#39=EDGE_LOOP('',(#171,#172,#173,#174,#175,#176,#177,#178,#179,#180,#181));
#40=EDGE_LOOP('',(#182,#183,#184,#185));
#41=EDGE_LOOP('',(#186,#187,#188,#189));
#42=EDGE_LOOP('',(#190,#191,#192,#193));
#43=EDGE_LOOP('',(#194,#195,#196,#197));
#44=EDGE_LOOP('',(#198,#199,#200,#201));
#45=EDGE_LOOP('',(#202,#203,#204,#205));
#46=EDGE_LOOP('',(#206,#207,#208,#209));
#47=EDGE_LOOP('',(#210,#211,#212,#213));
#48=EDGE_LOOP('',(#214,#215,#216,#217));
#49=EDGE_LOOP('',(#218,#219,#220,#221,#222,#223,#224,#225,#226,#227,#228));
#50=LINE('',#344,#75);
#51=LINE('',#347,#76);
#52=LINE('',#350,#77);
#53=LINE('',#352,#78);
#54=LINE('',#353,#79);
#55=LINE('',#356,#80);
#56=LINE('',#358,#81);
#57=LINE('',#362,#82);
#58=LINE('',#366,#83);
#59=LINE('',#368,#84);
#60=LINE('',#370,#85);
#61=LINE('',#376,#86);
#62=LINE('',#377,#87);
#63=LINE('',#380,#88);
#64=LINE('',#381,#89);
#65=LINE('',#385,#90);
#66=LINE('',#388,#91);
#67=LINE('',#389,#92);
#68=LINE('',#394,#93);
#69=LINE('',#395,#94);
#70=LINE('',#398,#95);
#71=LINE('',#399,#96);
#72=LINE('',#401,#97);
#73=LINE('',#403,#98);
#74=LINE('',#405,#99);
#75=VECTOR('',#275,1000.);
#76=VECTOR('',#278,1000.);
#77=VECTOR('',#281,4.14017226487823);
#78=VECTOR('',#282,1000.);
#79=VECTOR('',#283,4.14017226487823);
#80=VECTOR('',#286,79.);
#81=VECTOR('',#287,79.);
#82=VECTOR('',#290,4.14017226487823);
#83=VECTOR('',#293,53.2854349807272);
#84=VECTOR('',#294,19.7989898732233);
#85=VECTOR('',#295,53.2854349807272);
#86=VECTOR('',#302,1000.);
#87=VECTOR('',#303,1000.);
#88=VECTOR('',#306,1000.);
#89=VECTOR('',#307,79.);
#90=VECTOR('',#312,1000.);
#91=VECTOR('',#315,1000.);
#92=VECTOR('',#316,53.2854349807272);
#93=VECTOR('',#321,1000.);
#94=VECTOR('',#322,1000.);
#95=VECTOR('',#325,53.2854349807272);
#96=VECTOR('',#326,1000.);
#97=VECTOR('',#329,4.14017226487823);
#98=VECTOR('',#332,19.7989898732233);
#99=VECTOR('',#335,79.);
#100=CIRCLE('',#249,1.);
#101=CIRCLE('',#250,1.);
#102=CIRCLE('',#253,1.);
#103=CIRCLE('',#254,2.);
#104=CIRCLE('',#255,2.);
#105=CIRCLE('',#257,1.);
#106=CIRCLE('',#260,2.);
#107=CIRCLE('',#263,2.);
#108=VERTEX_POINT('',#340);
#109=VERTEX_POINT('',#341);
#110=VERTEX_POINT('',#343);
#111=VERTEX_POINT('',#345);
#112=VERTEX_POINT('',#349);
#113=VERTEX_POINT('',#351);
#114=VERTEX_POINT('',#355);
#115=VERTEX_POINT('',#357);
#116=VERTEX_POINT('',#359);
#117=VERTEX_POINT('',#361);
#118=VERTEX_POINT('',#363);
#119=VERTEX_POINT('',#365);
#120=VERTEX_POINT('',#367);
#121=VERTEX_POINT('',#369);
#122=VERTEX_POINT('',#373);
#123=VERTEX_POINT('',#374);
#124=VERTEX_POINT('',#379);
#125=VERTEX_POINT('',#383);
#126=VERTEX_POINT('',#387);
#127=VERTEX_POINT('',#391);
#128=VERTEX_POINT('',#392);
#129=VERTEX_POINT('',#397);
#130=EDGE_CURVE('',#108,#109,#100,.T.);
#131=EDGE_CURVE('',#109,#110,#50,.T.);
#132=EDGE_CURVE('',#110,#111,#101,.T.);
#133=EDGE_CURVE('',#111,#108,#51,.T.);
#134=EDGE_CURVE('',#111,#112,#52,.T.);
#135=EDGE_CURVE('',#113,#112,#53,.T.);
#136=EDGE_CURVE('',#113,#108,#54,.T.);
#137=EDGE_CURVE('',#114,#110,#55,.T.);
#138=EDGE_CURVE('',#115,#114,#56,.T.);
#139=EDGE_CURVE('',#116,#115,#102,.T.);
#140=EDGE_CURVE('',#117,#116,#57,.T.);
#141=EDGE_CURVE('',#118,#117,#103,.T.);
#142=EDGE_CURVE('',#119,#118,#58,.T.);
#143=EDGE_CURVE('',#120,#119,#59,.T.);
#144=EDGE_CURVE('',#121,#120,#60,.T.);
#145=EDGE_CURVE('',#112,#121,#104,.T.);
#146=EDGE_CURVE('',#122,#123,#105,.T.);
#147=EDGE_CURVE('',#123,#116,#61,.T.);
#148=EDGE_CURVE('',#115,#122,#62,.T.);
#149=EDGE_CURVE('',#114,#124,#63,.T.);
#150=EDGE_CURVE('',#124,#122,#64,.T.);
#151=EDGE_CURVE('',#125,#113,#106,.T.);
#152=EDGE_CURVE('',#121,#125,#65,.T.);
#153=EDGE_CURVE('',#120,#126,#66,.T.);
#154=EDGE_CURVE('',#126,#125,#67,.T.);
#155=EDGE_CURVE('',#127,#128,#107,.T.);
#156=EDGE_CURVE('',#128,#118,#68,.T.);
#157=EDGE_CURVE('',#117,#127,#69,.T.);
#158=EDGE_CURVE('',#128,#129,#70,.T.);
#159=EDGE_CURVE('',#119,#129,#71,.T.);
#160=EDGE_CURVE('',#123,#127,#72,.T.);
#161=EDGE_CURVE('',#129,#126,#73,.T.);
#162=EDGE_CURVE('',#109,#124,#74,.T.);
#163=ORIENTED_EDGE('',*,*,#130,.T.);
#164=ORIENTED_EDGE('',*,*,#131,.T.);
#165=ORIENTED_EDGE('',*,*,#132,.T.);
#166=ORIENTED_EDGE('',*,*,#133,.T.);
#167=ORIENTED_EDGE('',*,*,#133,.F.);
#168=ORIENTED_EDGE('',*,*,#134,.T.);
#169=ORIENTED_EDGE('',*,*,#135,.F.);
#170=ORIENTED_EDGE('',*,*,#136,.T.);
#171=ORIENTED_EDGE('',*,*,#132,.F.);
#172=ORIENTED_EDGE('',*,*,#137,.F.);
#173=ORIENTED_EDGE('',*,*,#138,.F.);
#174=ORIENTED_EDGE('',*,*,#139,.F.);
#175=ORIENTED_EDGE('',*,*,#140,.F.);
#176=ORIENTED_EDGE('',*,*,#141,.F.);
#177=ORIENTED_EDGE('',*,*,#142,.F.);
#178=ORIENTED_EDGE('',*,*,#143,.F.);
#179=ORIENTED_EDGE('',*,*,#144,.F.);
#180=ORIENTED_EDGE('',*,*,#145,.F.);
#181=ORIENTED_EDGE('',*,*,#134,.F.);
#182=ORIENTED_EDGE('',*,*,#146,.T.);
#183=ORIENTED_EDGE('',*,*,#147,.T.);
#184=ORIENTED_EDGE('',*,*,#139,.T.);
#185=ORIENTED_EDGE('',*,*,#148,.T.);
#186=ORIENTED_EDGE('',*,*,#148,.F.);
#187=ORIENTED_EDGE('',*,*,#138,.T.);
#188=ORIENTED_EDGE('',*,*,#149,.T.);
#189=ORIENTED_EDGE('',*,*,#150,.T.);
#190=ORIENTED_EDGE('',*,*,#151,.T.);
#191=ORIENTED_EDGE('',*,*,#135,.T.);
#192=ORIENTED_EDGE('',*,*,#145,.T.);
#193=ORIENTED_EDGE('',*,*,#152,.T.);
#194=ORIENTED_EDGE('',*,*,#152,.F.);
#195=ORIENTED_EDGE('',*,*,#144,.T.);
#196=ORIENTED_EDGE('',*,*,#153,.T.);
#197=ORIENTED_EDGE('',*,*,#154,.T.);
#198=ORIENTED_EDGE('',*,*,#155,.T.);
#199=ORIENTED_EDGE('',*,*,#156,.T.);
#200=ORIENTED_EDGE('',*,*,#141,.T.);
#201=ORIENTED_EDGE('',*,*,#157,.T.);
#202=ORIENTED_EDGE('',*,*,#156,.F.);
#203=ORIENTED_EDGE('',*,*,#158,.T.);
#204=ORIENTED_EDGE('',*,*,#159,.F.);
#205=ORIENTED_EDGE('',*,*,#142,.T.);
#206=ORIENTED_EDGE('',*,*,#147,.F.);
#207=ORIENTED_EDGE('',*,*,#160,.T.);
#208=ORIENTED_EDGE('',*,*,#157,.F.);
#209=ORIENTED_EDGE('',*,*,#140,.T.);
#210=ORIENTED_EDGE('',*,*,#161,.T.);
#211=ORIENTED_EDGE('',*,*,#153,.F.);
#212=ORIENTED_EDGE('',*,*,#143,.T.);
#213=ORIENTED_EDGE('',*,*,#159,.T.);
#214=ORIENTED_EDGE('',*,*,#131,.F.);
#215=ORIENTED_EDGE('',*,*,#162,.T.);
#216=ORIENTED_EDGE('',*,*,#149,.F.);
#217=ORIENTED_EDGE('',*,*,#137,.T.);
#218=ORIENTED_EDGE('',*,*,#130,.F.);
#219=ORIENTED_EDGE('',*,*,#136,.F.);
#220=ORIENTED_EDGE('',*,*,#151,.F.);
#221=ORIENTED_EDGE('',*,*,#154,.F.);
#222=ORIENTED_EDGE('',*,*,#161,.F.);
#223=ORIENTED_EDGE('',*,*,#158,.F.);
#224=ORIENTED_EDGE('',*,*,#155,.F.);
#225=ORIENTED_EDGE('',*,*,#160,.F.);
#226=ORIENTED_EDGE('',*,*,#146,.F.);
#227=ORIENTED_EDGE('',*,*,#150,.F.);
#228=ORIENTED_EDGE('',*,*,#162,.F.);
#229=CYLINDRICAL_SURFACE('',#248,1.);
#230=CYLINDRICAL_SURFACE('',#256,1.);
#231=CYLINDRICAL_SURFACE('',#259,2.);
#232=CYLINDRICAL_SURFACE('',#262,2.);
#233=ADVANCED_FACE('',(#24),#229,.T.);
#234=ADVANCED_FACE('',(#25),#15,.T.);
#235=ADVANCED_FACE('',(#26),#16,.F.);
#236=ADVANCED_FACE('',(#27),#230,.T.);
#237=ADVANCED_FACE('',(#28),#17,.T.);
#238=ADVANCED_FACE('',(#29),#231,.T.);
#239=ADVANCED_FACE('',(#30),#18,.T.);
#240=ADVANCED_FACE('',(#31),#232,.T.);
#241=ADVANCED_FACE('',(#32),#19,.T.);
#242=ADVANCED_FACE('',(#33),#20,.T.);
#243=ADVANCED_FACE('',(#34),#21,.T.);
#244=ADVANCED_FACE('',(#35),#22,.T.);
#245=ADVANCED_FACE('',(#36),#23,.T.);
#246=CLOSED_SHELL('',(#233,#234,#235,#236,#237,#238,#239,#240,#241,#242,
#243,#244,#245));
#247=AXIS2_PLACEMENT_3D('placement',#338,#269,#270);
#248=AXIS2_PLACEMENT_3D('',#339,#271,#272);
#249=AXIS2_PLACEMENT_3D('',#342,#273,#274);
#250=AXIS2_PLACEMENT_3D('',#346,#276,#277);
#251=AXIS2_PLACEMENT_3D('',#348,#279,#280);
#252=AXIS2_PLACEMENT_3D('',#354,#284,#285);
#253=AXIS2_PLACEMENT_3D('',#360,#288,#289);
#254=AXIS2_PLACEMENT_3D('',#364,#291,#292);
#255=AXIS2_PLACEMENT_3D('',#371,#296,#297);
#256=AXIS2_PLACEMENT_3D('',#372,#298,#299);
#257=AXIS2_PLACEMENT_3D('',#375,#300,#301);
#258=AXIS2_PLACEMENT_3D('',#378,#304,#305);
#259=AXIS2_PLACEMENT_3D('',#382,#308,#309);
#260=AXIS2_PLACEMENT_3D('',#384,#310,#311);
#261=AXIS2_PLACEMENT_3D('',#386,#313,#314);
#262=AXIS2_PLACEMENT_3D('',#390,#317,#318);
#263=AXIS2_PLACEMENT_3D('',#393,#319,#320);
#264=AXIS2_PLACEMENT_3D('',#396,#323,#324);
#265=AXIS2_PLACEMENT_3D('',#400,#327,#328);
#266=AXIS2_PLACEMENT_3D('',#402,#330,#331);
#267=AXIS2_PLACEMENT_3D('',#404,#333,#334);
#268=AXIS2_PLACEMENT_3D('',#406,#336,#337);
#269=DIRECTION('axis',(0.,0.,1.));
#270=DIRECTION('refdir',(1.,0.,0.));
#271=DIRECTION('center_axis',(0.,0.,1.));
#272=DIRECTION('ref_axis',(0.707106781186554,-0.707106781186541,0.));
#273=DIRECTION('center_axis',(0.,0.,-1.));
#274=DIRECTION('ref_axis',(0.707106781186554,-0.707106781186541,0.));
#275=DIRECTION('',(0.,0.,-1.));
#276=DIRECTION('center_axis',(0.,0.,1.));
#277=DIRECTION('ref_axis',(0.707106781186554,-0.707106781186541,0.));
#278=DIRECTION('',(0.,0.,1.));
#279=DIRECTION('center_axis',(1.,1.26882631385732E-15,0.));
#280=DIRECTION('ref_axis',(0.,0.,-1.));
#281=DIRECTION('',(-1.26882631385732E-15,1.,0.));
#282=DIRECTION('',(0.,0.,-1.));
#283=DIRECTION('',(1.26882631385732E-15,-1.,0.));
#284=DIRECTION('center_axis',(0.,0.,1.));
#285=DIRECTION('ref_axis',(1.,0.,0.));
#286=DIRECTION('',(1.,3.33066907387547E-16,0.));
#287=DIRECTION('',(1.11022302462516E-16,-1.,0.));
#288=DIRECTION('center_axis',(0.,0.,1.));
#289=DIRECTION('ref_axis',(-0.707106781186548,0.707106781186548,0.));
#290=DIRECTION('',(-1.,-6.34413156928661E-16,0.));
#291=DIRECTION('center_axis',(0.,0.,1.));
#292=DIRECTION('ref_axis',(0.680978819135065,0.732303112030403,0.));
#293=DIRECTION('',(-0.0725356957788215,0.997365816958794,0.));
#294=DIRECTION('',(-0.707106781186547,0.707106781186548,0.));
#295=DIRECTION('',(-0.997365816958794,0.0725356957788209,0.));
#296=DIRECTION('center_axis',(0.,0.,1.));
#297=DIRECTION('ref_axis',(0.732303112030403,0.680978819135065,0.));
#298=DIRECTION('center_axis',(0.,0.,1.));
#299=DIRECTION('ref_axis',(-0.707106781186548,0.707106781186548,0.));
#300=DIRECTION('center_axis',(0.,0.,-1.));
#301=DIRECTION('ref_axis',(-0.707106781186548,0.707106781186548,0.));
#302=DIRECTION('',(0.,0.,-1.));
#303=DIRECTION('',(0.,0.,1.));
#304=DIRECTION('center_axis',(-1.,-1.11022302462516E-16,0.));
#305=DIRECTION('ref_axis',(0.,0.,1.));
#306=DIRECTION('',(0.,0.,1.));
#307=DIRECTION('',(-1.11022302462516E-16,1.,0.));
#308=DIRECTION('center_axis',(0.,0.,1.));
#309=DIRECTION('ref_axis',(0.732303112030403,0.680978819135065,0.));
#310=DIRECTION('center_axis',(0.,0.,-1.));
#311=DIRECTION('ref_axis',(0.732303112030403,0.680978819135065,0.));
#312=DIRECTION('',(0.,0.,1.));
#313=DIRECTION('center_axis',(0.0725356957788209,0.997365816958794,0.));
#314=DIRECTION('ref_axis',(0.,0.,1.));
#315=DIRECTION('',(0.,0.,1.));
#316=DIRECTION('',(0.997365816958794,-0.0725356957788209,0.));
#317=DIRECTION('center_axis',(0.,0.,1.));
#318=DIRECTION('ref_axis',(0.680978819135065,0.732303112030403,0.));
#319=DIRECTION('center_axis',(0.,0.,-1.));
#320=DIRECTION('ref_axis',(0.680978819135065,0.732303112030403,0.));
#321=DIRECTION('',(0.,0.,-1.));
#322=DIRECTION('',(0.,0.,1.));
#323=DIRECTION('center_axis',(0.997365816958794,0.0725356957788215,0.));
#324=DIRECTION('ref_axis',(0.,0.,-1.));
#325=DIRECTION('',(0.0725356957788215,-0.997365816958794,0.));
#326=DIRECTION('',(0.,0.,1.));
#327=DIRECTION('center_axis',(-6.34413156928661E-16,1.,0.));
#328=DIRECTION('ref_axis',(0.,0.,1.));
#329=DIRECTION('',(1.,6.34413156928661E-16,0.));
#330=DIRECTION('center_axis',(0.707106781186548,0.707106781186547,0.));
#331=DIRECTION('ref_axis',(0.,0.,-1.));
#332=DIRECTION('',(0.707106781186547,-0.707106781186548,0.));
#333=DIRECTION('center_axis',(3.33066907387547E-16,-1.,0.));
#334=DIRECTION('ref_axis',(0.,0.,-1.));
#335=DIRECTION('',(-1.,-3.33066907387547E-16,0.));
#336=DIRECTION('center_axis',(0.,0.,1.));
#337=DIRECTION('ref_axis',(1.,0.,0.));
#338=CARTESIAN_POINT('',(0.,0.,0.));
#339=CARTESIAN_POINT('Origin',(40.4754526661348,-47.4108531078734,0.));
#340=CARTESIAN_POINT('',(41.4754526661348,-47.4108531078734,1000.));
#341=CARTESIAN_POINT('',(40.4754526661348,-48.4108531078734,1000.));
#342=CARTESIAN_POINT('Origin',(40.4754526661348,-47.4108531078734,1000.));
#343=CARTESIAN_POINT('',(40.4754526661348,-48.4108531078734,0.));
#344=CARTESIAN_POINT('',(40.4754526661348,-48.4108531078734,0.));
#345=CARTESIAN_POINT('',(41.4754526661348,-47.4108531078734,0.));
#346=CARTESIAN_POINT('Origin',(40.4754526661348,-47.4108531078734,0.));
#347=CARTESIAN_POINT('',(41.4754526661348,-47.4108531078734,0.));
#348=CARTESIAN_POINT('Origin',(41.4754526661348,-41.4108531078734,0.));
#349=CARTESIAN_POINT('',(41.4754526661348,-43.2706808429952,0.));
#350=CARTESIAN_POINT('',(41.4754526661348,-48.4108531078734,0.));
#351=CARTESIAN_POINT('',(41.4754526661348,-43.2706808429952,1000.));
#352=CARTESIAN_POINT('',(41.4754526661348,-43.2706808429952,0.));
#353=CARTESIAN_POINT('',(41.4754526661348,-48.4108531078734,1000.));
#354=CARTESIAN_POINT('Origin',(-13.7544875467337,-23.6407933207419,0.));
#355=CARTESIAN_POINT('',(-38.5245473338652,-48.4108531078734,0.));
#356=CARTESIAN_POINT('',(-38.5245473338652,-48.4108531078734,0.));
#357=CARTESIAN_POINT('',(-38.5245473338652,30.5891468921266,0.));
#358=CARTESIAN_POINT('',(-38.5245473338652,31.5891468921266,0.));
#359=CARTESIAN_POINT('',(-37.5245473338652,31.5891468921266,0.));
#360=CARTESIAN_POINT('Origin',(-37.5245473338652,30.5891468921266,0.));
#361=CARTESIAN_POINT('',(-33.384375068987,31.5891468921266,0.));
#362=CARTESIAN_POINT('',(-31.5245473338652,31.5891468921266,0.));
#363=CARTESIAN_POINT('',(-31.3896434350694,29.7342182836842,0.));
#364=CARTESIAN_POINT('Origin',(-33.384375068987,29.5891468921266,0.));
#365=CARTESIAN_POINT('',(-27.5245473338652,-23.4108531078734,0.));
#366=CARTESIAN_POINT('',(-27.5245473338652,-23.4108531078734,0.));
#367=CARTESIAN_POINT('',(-13.5245473338652,-37.4108531078734,0.));
#368=CARTESIAN_POINT('',(-13.5245473338652,-37.4108531078734,0.));
#369=CARTESIAN_POINT('',(39.6205240576924,-41.2759492090776,0.));
#370=CARTESIAN_POINT('',(41.4754526661348,-41.4108531078734,0.));
#371=CARTESIAN_POINT('Origin',(39.4754526661348,-43.2706808429952,0.));
#372=CARTESIAN_POINT('Origin',(-37.5245473338652,30.5891468921266,0.));
#373=CARTESIAN_POINT('',(-38.5245473338652,30.5891468921266,1000.));
#374=CARTESIAN_POINT('',(-37.5245473338652,31.5891468921266,1000.));
#375=CARTESIAN_POINT('Origin',(-37.5245473338652,30.5891468921266,1000.));
#376=CARTESIAN_POINT('',(-37.5245473338652,31.5891468921266,0.));
#377=CARTESIAN_POINT('',(-38.5245473338652,30.5891468921266,0.));
#378=CARTESIAN_POINT('Origin',(-38.5245473338652,-48.4108531078734,0.));
#379=CARTESIAN_POINT('',(-38.5245473338652,-48.4108531078734,1000.));
#380=CARTESIAN_POINT('',(-38.5245473338652,-48.4108531078734,0.));
#381=CARTESIAN_POINT('',(-38.5245473338652,31.5891468921266,1000.));
#382=CARTESIAN_POINT('Origin',(39.4754526661348,-43.2706808429952,0.));
#383=CARTESIAN_POINT('',(39.6205240576924,-41.2759492090776,1000.));
#384=CARTESIAN_POINT('Origin',(39.4754526661348,-43.2706808429952,1000.));
#385=CARTESIAN_POINT('',(39.6205240576924,-41.2759492090776,0.));
#386=CARTESIAN_POINT('Origin',(-13.5245473338652,-37.4108531078734,0.));
#387=CARTESIAN_POINT('',(-13.5245473338652,-37.4108531078734,1000.));
#388=CARTESIAN_POINT('',(-13.5245473338652,-37.4108531078734,0.));
#389=CARTESIAN_POINT('',(41.4754526661348,-41.4108531078734,1000.));
#390=CARTESIAN_POINT('Origin',(-33.384375068987,29.5891468921266,0.));
#391=CARTESIAN_POINT('',(-33.384375068987,31.5891468921266,1000.));
#392=CARTESIAN_POINT('',(-31.3896434350694,29.7342182836842,1000.));
#393=CARTESIAN_POINT('Origin',(-33.384375068987,29.5891468921266,1000.));
#394=CARTESIAN_POINT('',(-31.3896434350694,29.7342182836842,0.));
#395=CARTESIAN_POINT('',(-33.384375068987,31.5891468921266,0.));
#396=CARTESIAN_POINT('Origin',(-31.5245473338652,31.5891468921266,0.));
#397=CARTESIAN_POINT('',(-27.5245473338652,-23.4108531078734,1000.));
#398=CARTESIAN_POINT('',(-27.5245473338652,-23.4108531078734,1000.));
#399=CARTESIAN_POINT('',(-27.5245473338652,-23.4108531078734,0.));
#400=CARTESIAN_POINT('Origin',(-38.5245473338652,31.5891468921266,0.));
#401=CARTESIAN_POINT('',(-31.5245473338652,31.5891468921266,1000.));
#402=CARTESIAN_POINT('Origin',(-27.5245473338652,-23.4108531078734,0.));
#403=CARTESIAN_POINT('',(-13.5245473338652,-37.4108531078734,1000.));
#404=CARTESIAN_POINT('Origin',(41.4754526661348,-48.4108531078734,0.));
#405=CARTESIAN_POINT('',(-38.5245473338652,-48.4108531078734,1000.));
#406=CARTESIAN_POINT('Origin',(-13.7544875467337,-23.6407933207419,1000.));
#407=UNCERTAINTY_MEASURE_WITH_UNIT(LENGTH_MEASURE(0.01),#411,
'DISTANCE_ACCURACY_VALUE',
'Maximum model space distance between geometric entities at asserted c
onnectivities');
#408=UNCERTAINTY_MEASURE_WITH_UNIT(LENGTH_MEASURE(1.E-6),#411,
'DISTANCE_ACCURACY_VALUE',
'Maximum model space distance between geometric entities at asserted c
onnectivities');
#409=(
GEOMETRIC_REPRESENTATION_CONTEXT(3)
GLOBAL_UNCERTAINTY_ASSIGNED_CONTEXT((#407))
GLOBAL_UNIT_ASSIGNED_CONTEXT((#411,#414,#412))
REPRESENTATION_CONTEXT('','3D')
);
#410=(
GEOMETRIC_REPRESENTATION_CONTEXT(3)
GLOBAL_UNCERTAINTY_ASSIGNED_CONTEXT((#408))
GLOBAL_UNIT_ASSIGNED_CONTEXT((#411,#414,#412))
REPRESENTATION_CONTEXT('','3D')
);
#411=(
LENGTH_UNIT()
NAMED_UNIT(*)
SI_UNIT(.MILLI.,.METRE.)
);
#412=(
NAMED_UNIT(*)
SI_UNIT($,.STERADIAN.)
SOLID_ANGLE_UNIT()
);
#413=DIMENSIONAL_EXPONENTS(0.,0.,0.,0.,0.,0.,0.);
#414=(
CONVERSION_BASED_UNIT('degree',#416)
NAMED_UNIT(#413)
PLANE_ANGLE_UNIT()
);
#415=(
NAMED_UNIT(*)
PLANE_ANGLE_UNIT()
SI_UNIT($,.RADIAN.)
);
#416=PLANE_ANGLE_MEASURE_WITH_UNIT(PLANE_ANGLE_MEASURE(0.01745329252),#415);
#417=SHAPE_DEFINITION_REPRESENTATION(#418,#419);
#418=PRODUCT_DEFINITION_SHAPE('',$,#421);
#419=SHAPE_REPRESENTATION('',(#247),#409);
#420=PRODUCT_DEFINITION_CONTEXT('part definition',#425,'design');
#421=PRODUCT_DEFINITION('11472_KriTec_Strangpre\X\DFwinkelprofil_80x80',
'11472_KriTec_Strangpre\X\DFwinkelprofil_80x80',#422,#420);
#422=PRODUCT_DEFINITION_FORMATION('',$,#427);
#423=PRODUCT_RELATED_PRODUCT_CATEGORY(
'11472_KriTec_Strangpre\X\DFwinkelprofil_80x80',
'11472_KriTec_Strangpre\X\DFwinkelprofil_80x80',(#427));
#424=APPLICATION_PROTOCOL_DEFINITION('international standard',
'automotive_design',2009,#425);
#425=APPLICATION_CONTEXT(
'Core Data for Automotive Mechanical Design Process');
#426=PRODUCT_CONTEXT('part definition',#425,'mechanical');
#427=PRODUCT('11472_KriTec_Strangpre\X\DFwinkelprofil_80x80',
'11472_KriTec_Strangpre\X\DFwinkelprofil_80x80',$,(#426));
#428=PRESENTATION_STYLE_ASSIGNMENT((#429));
#429=SURFACE_STYLE_USAGE(.BOTH.,#430);
#430=SURFACE_SIDE_STYLE('',(#431));
#431=SURFACE_STYLE_FILL_AREA(#432);
#432=FILL_AREA_STYLE('',(#433));
#433=FILL_AREA_STYLE_COLOUR('',#434);
#434=COLOUR_RGB('',0.956862745098039,0.956862745098039,0.956862745098039);
ENDSEC;
END-ISO-10303-21;
