ISO-10303-21;
HEADER;
/* Generated by software containing ST-Developer
 * from STEP Tools, Inc. (www.steptools.com) 
 */

FILE_DESCRIPTION(
/* description */ ('Aluwinkel-40x40x120'),
/* implementation_level */ '2;1');

FILE_NAME(
/* name */ 
'S:\\Bilder_neu\\11471_KriTec_Strangpresswinkelprofil_natur_40x40\\Inv
entordateien\\11471_KriTec_Strangpre\X\DFwinkelprofil_natur_40x40.stp',

/* time_stamp */ '2016-07-15T13:39:16+02:00',
/* author */ ('Steiner'),
/* organization */ (''),
/* preprocessor_version */ 'ST-DEVELOPER v16.1',
/* originating_system */ 'Autodesk Inventor 2016',
/* authorisation */ '');

FILE_SCHEMA (('AUTOMOTIVE_DESIGN { 1 0 10303 214 3 1 1 }'));
ENDSEC;

DATA;
#10=MECHANICAL_DESIGN_GEOMETRIC_PRESENTATION_REPRESENTATION('',(#13),#340);
#11=SHAPE_REPRESENTATION_RELATIONSHIP('SRR','None',#349,#12);
#12=ADVANCED_BREP_SHAPE_REPRESENTATION('',(#14),#339);
#13=STYLED_ITEM('',(#358),#14);
#14=MANIFOLD_SOLID_BREP('Volumenk\X\F6rper1',#208);
#15=PLANE('',#213);
#16=PLANE('',#214);
#17=PLANE('',#218);
#18=PLANE('',#219);
#19=PLANE('',#220);
#20=PLANE('',#221);
#21=PLANE('',#222);
#22=PLANE('',#223);
#23=PLANE('',#224);
#24=FACE_OUTER_BOUND('',#35,.T.);
#25=FACE_OUTER_BOUND('',#36,.T.);
#26=FACE_OUTER_BOUND('',#37,.T.);
#27=FACE_OUTER_BOUND('',#38,.T.);
#28=FACE_OUTER_BOUND('',#39,.T.);
#29=FACE_OUTER_BOUND('',#40,.T.);
#30=FACE_OUTER_BOUND('',#41,.T.);
#31=FACE_OUTER_BOUND('',#42,.T.);
#32=FACE_OUTER_BOUND('',#43,.T.);
#33=FACE_OUTER_BOUND('',#44,.T.);
#34=FACE_OUTER_BOUND('',#45,.T.);
#35=EDGE_LOOP('',(#141,#142,#143,#144));
#36=EDGE_LOOP('',(#145,#146,#147,#148));
#37=EDGE_LOOP('',(#149,#150,#151,#152,#153,#154,#155,#156,#157));
#38=EDGE_LOOP('',(#158,#159,#160,#161));
#39=EDGE_LOOP('',(#162,#163,#164,#165));
#40=EDGE_LOOP('',(#166,#167,#168,#169));
#41=EDGE_LOOP('',(#170,#171,#172,#173));
#42=EDGE_LOOP('',(#174,#175,#176,#177));
#43=EDGE_LOOP('',(#178,#179,#180,#181));
#44=EDGE_LOOP('',(#182,#183,#184,#185));
#45=EDGE_LOOP('',(#186,#187,#188,#189,#190,#191,#192,#193,#194));
#46=LINE('',#286,#69);
#47=LINE('',#289,#70);
#48=LINE('',#292,#71);
#49=LINE('',#294,#72);
#50=LINE('',#295,#73);
#51=LINE('',#298,#74);
#52=LINE('',#300,#75);
#53=LINE('',#302,#76);
#54=LINE('',#304,#77);
#55=LINE('',#308,#78);
#56=LINE('',#309,#79);
#57=LINE('',#314,#80);
#58=LINE('',#315,#81);
#59=LINE('',#318,#82);
#60=LINE('',#319,#83);
#61=LINE('',#322,#84);
#62=LINE('',#323,#85);
#63=LINE('',#325,#86);
#64=LINE('',#328,#87);
#65=LINE('',#329,#88);
#66=LINE('',#332,#89);
#67=LINE('',#333,#90);
#68=LINE('',#335,#91);
#69=VECTOR('',#231,1000.);
#70=VECTOR('',#234,1000.);
#71=VECTOR('',#237,12.4075448203408);
#72=VECTOR('',#238,1000.);
#73=VECTOR('',#239,12.4075448203408);
#74=VECTOR('',#242,5.26540919660988);
#75=VECTOR('',#243,40.);
#76=VECTOR('',#244,40.);
#77=VECTOR('',#245,5.26540919660987);
#78=VECTOR('',#248,12.4075448203408);
#79=VECTOR('',#249,24.0416305603426);
#80=VECTOR('',#254,1000.);
#81=VECTOR('',#255,1000.);
#82=VECTOR('',#258,12.4075448203408);
#83=VECTOR('',#259,1000.);
#84=VECTOR('',#262,1000.);
#85=VECTOR('',#263,5.26540919660987);
#86=VECTOR('',#266,24.0416305603426);
#87=VECTOR('',#269,5.26540919660988);
#88=VECTOR('',#270,1000.);
#89=VECTOR('',#273,40.);
#90=VECTOR('',#274,1000.);
#91=VECTOR('',#277,40.);
#92=CIRCLE('',#211,2.);
#93=CIRCLE('',#212,2.);
#94=CIRCLE('',#215,2.);
#95=CIRCLE('',#217,2.);
#96=VERTEX_POINT('',#282);
#97=VERTEX_POINT('',#283);
#98=VERTEX_POINT('',#285);
#99=VERTEX_POINT('',#287);
#100=VERTEX_POINT('',#291);
#101=VERTEX_POINT('',#293);
#102=VERTEX_POINT('',#297);
#103=VERTEX_POINT('',#299);
#104=VERTEX_POINT('',#301);
#105=VERTEX_POINT('',#303);
#106=VERTEX_POINT('',#305);
#107=VERTEX_POINT('',#307);
#108=VERTEX_POINT('',#311);
#109=VERTEX_POINT('',#312);
#110=VERTEX_POINT('',#317);
#111=VERTEX_POINT('',#321);
#112=VERTEX_POINT('',#327);
#113=VERTEX_POINT('',#331);
#114=EDGE_CURVE('',#96,#97,#92,.T.);
#115=EDGE_CURVE('',#97,#98,#46,.T.);
#116=EDGE_CURVE('',#98,#99,#93,.T.);
#117=EDGE_CURVE('',#99,#96,#47,.T.);
#118=EDGE_CURVE('',#99,#100,#48,.T.);
#119=EDGE_CURVE('',#100,#101,#49,.T.);
#120=EDGE_CURVE('',#101,#96,#50,.T.);
#121=EDGE_CURVE('',#102,#98,#51,.T.);
#122=EDGE_CURVE('',#103,#102,#52,.T.);
#123=EDGE_CURVE('',#104,#103,#53,.T.);
#124=EDGE_CURVE('',#105,#104,#54,.T.);
#125=EDGE_CURVE('',#106,#105,#94,.T.);
#126=EDGE_CURVE('',#107,#106,#55,.T.);
#127=EDGE_CURVE('',#100,#107,#56,.T.);
#128=EDGE_CURVE('',#108,#109,#95,.T.);
#129=EDGE_CURVE('',#109,#106,#57,.T.);
#130=EDGE_CURVE('',#105,#108,#58,.T.);
#131=EDGE_CURVE('',#109,#110,#59,.T.);
#132=EDGE_CURVE('',#107,#110,#60,.T.);
#133=EDGE_CURVE('',#104,#111,#61,.T.);
#134=EDGE_CURVE('',#111,#108,#62,.T.);
#135=EDGE_CURVE('',#110,#101,#63,.T.);
#136=EDGE_CURVE('',#97,#112,#64,.T.);
#137=EDGE_CURVE('',#102,#112,#65,.T.);
#138=EDGE_CURVE('',#112,#113,#66,.T.);
#139=EDGE_CURVE('',#103,#113,#67,.T.);
#140=EDGE_CURVE('',#113,#111,#68,.T.);
#141=ORIENTED_EDGE('',*,*,#114,.T.);
#142=ORIENTED_EDGE('',*,*,#115,.T.);
#143=ORIENTED_EDGE('',*,*,#116,.T.);
#144=ORIENTED_EDGE('',*,*,#117,.T.);
#145=ORIENTED_EDGE('',*,*,#117,.F.);
#146=ORIENTED_EDGE('',*,*,#118,.T.);
#147=ORIENTED_EDGE('',*,*,#119,.T.);
#148=ORIENTED_EDGE('',*,*,#120,.T.);
#149=ORIENTED_EDGE('',*,*,#116,.F.);
#150=ORIENTED_EDGE('',*,*,#121,.F.);
#151=ORIENTED_EDGE('',*,*,#122,.F.);
#152=ORIENTED_EDGE('',*,*,#123,.F.);
#153=ORIENTED_EDGE('',*,*,#124,.F.);
#154=ORIENTED_EDGE('',*,*,#125,.F.);
#155=ORIENTED_EDGE('',*,*,#126,.F.);
#156=ORIENTED_EDGE('',*,*,#127,.F.);
#157=ORIENTED_EDGE('',*,*,#118,.F.);
#158=ORIENTED_EDGE('',*,*,#128,.T.);
#159=ORIENTED_EDGE('',*,*,#129,.T.);
#160=ORIENTED_EDGE('',*,*,#125,.T.);
#161=ORIENTED_EDGE('',*,*,#130,.T.);
#162=ORIENTED_EDGE('',*,*,#129,.F.);
#163=ORIENTED_EDGE('',*,*,#131,.T.);
#164=ORIENTED_EDGE('',*,*,#132,.F.);
#165=ORIENTED_EDGE('',*,*,#126,.T.);
#166=ORIENTED_EDGE('',*,*,#130,.F.);
#167=ORIENTED_EDGE('',*,*,#124,.T.);
#168=ORIENTED_EDGE('',*,*,#133,.T.);
#169=ORIENTED_EDGE('',*,*,#134,.T.);
#170=ORIENTED_EDGE('',*,*,#135,.T.);
#171=ORIENTED_EDGE('',*,*,#119,.F.);
#172=ORIENTED_EDGE('',*,*,#127,.T.);
#173=ORIENTED_EDGE('',*,*,#132,.T.);
#174=ORIENTED_EDGE('',*,*,#115,.F.);
#175=ORIENTED_EDGE('',*,*,#136,.T.);
#176=ORIENTED_EDGE('',*,*,#137,.F.);
#177=ORIENTED_EDGE('',*,*,#121,.T.);
#178=ORIENTED_EDGE('',*,*,#138,.T.);
#179=ORIENTED_EDGE('',*,*,#139,.F.);
#180=ORIENTED_EDGE('',*,*,#122,.T.);
#181=ORIENTED_EDGE('',*,*,#137,.T.);
#182=ORIENTED_EDGE('',*,*,#140,.T.);
#183=ORIENTED_EDGE('',*,*,#133,.F.);
#184=ORIENTED_EDGE('',*,*,#123,.T.);
#185=ORIENTED_EDGE('',*,*,#139,.T.);
#186=ORIENTED_EDGE('',*,*,#114,.F.);
#187=ORIENTED_EDGE('',*,*,#120,.F.);
#188=ORIENTED_EDGE('',*,*,#135,.F.);
#189=ORIENTED_EDGE('',*,*,#131,.F.);
#190=ORIENTED_EDGE('',*,*,#128,.F.);
#191=ORIENTED_EDGE('',*,*,#134,.F.);
#192=ORIENTED_EDGE('',*,*,#140,.F.);
#193=ORIENTED_EDGE('',*,*,#138,.F.);
#194=ORIENTED_EDGE('',*,*,#136,.F.);
#195=CYLINDRICAL_SURFACE('',#210,2.);
#196=CYLINDRICAL_SURFACE('',#216,2.);
#197=ADVANCED_FACE('',(#24),#195,.T.);
#198=ADVANCED_FACE('',(#25),#15,.T.);
#199=ADVANCED_FACE('',(#26),#16,.F.);
#200=ADVANCED_FACE('',(#27),#196,.T.);
#201=ADVANCED_FACE('',(#28),#17,.T.);
#202=ADVANCED_FACE('',(#29),#18,.T.);
#203=ADVANCED_FACE('',(#30),#19,.T.);
#204=ADVANCED_FACE('',(#31),#20,.T.);
#205=ADVANCED_FACE('',(#32),#21,.T.);
#206=ADVANCED_FACE('',(#33),#22,.T.);
#207=ADVANCED_FACE('',(#34),#23,.T.);
#208=CLOSED_SHELL('',(#197,#198,#199,#200,#201,#202,#203,#204,#205,#206,
#207));
#209=AXIS2_PLACEMENT_3D('placement',#280,#225,#226);
#210=AXIS2_PLACEMENT_3D('',#281,#227,#228);
#211=AXIS2_PLACEMENT_3D('',#284,#229,#230);
#212=AXIS2_PLACEMENT_3D('',#288,#232,#233);
#213=AXIS2_PLACEMENT_3D('',#290,#235,#236);
#214=AXIS2_PLACEMENT_3D('',#296,#240,#241);
#215=AXIS2_PLACEMENT_3D('',#306,#246,#247);
#216=AXIS2_PLACEMENT_3D('',#310,#250,#251);
#217=AXIS2_PLACEMENT_3D('',#313,#252,#253);
#218=AXIS2_PLACEMENT_3D('',#316,#256,#257);
#219=AXIS2_PLACEMENT_3D('',#320,#260,#261);
#220=AXIS2_PLACEMENT_3D('',#324,#264,#265);
#221=AXIS2_PLACEMENT_3D('',#326,#267,#268);
#222=AXIS2_PLACEMENT_3D('',#330,#271,#272);
#223=AXIS2_PLACEMENT_3D('',#334,#275,#276);
#224=AXIS2_PLACEMENT_3D('',#336,#278,#279);
#225=DIRECTION('axis',(0.,0.,1.));
#226=DIRECTION('refdir',(1.,0.,0.));
#227=DIRECTION('center_axis',(0.,0.,1.));
#228=DIRECTION('ref_axis',(0.755453954995706,0.655201741360129,0.));
#229=DIRECTION('center_axis',(0.,0.,-1.));
#230=DIRECTION('ref_axis',(0.755453954995706,0.655201741360129,0.));
#231=DIRECTION('',(0.,0.,-1.));
#232=DIRECTION('center_axis',(0.,0.,1.));
#233=DIRECTION('ref_axis',(0.755453954995706,0.655201741360129,0.));
#234=DIRECTION('',(0.,0.,1.));
#235=DIRECTION('center_axis',(0.141421356237309,0.989949493661167,0.));
#236=DIRECTION('ref_axis',(0.,0.,1.));
#237=DIRECTION('',(-0.989949493661167,0.141421356237309,0.));
#238=DIRECTION('',(0.,0.,1.));
#239=DIRECTION('',(0.989949493661167,-0.141421356237309,0.));
#240=DIRECTION('center_axis',(0.,0.,1.));
#241=DIRECTION('ref_axis',(1.,0.,0.));
#242=DIRECTION('',(-1.58603289232165E-15,1.,0.));
#243=DIRECTION('',(1.,1.11022302462516E-16,0.));
#244=DIRECTION('',(2.22044604925031E-16,-1.,0.));
#245=DIRECTION('',(-1.,-3.1720657846433E-16,0.));
#246=DIRECTION('center_axis',(0.,0.,1.));
#247=DIRECTION('ref_axis',(0.655201741360129,0.755453954995706,0.));
#248=DIRECTION('',(-0.141421356237309,0.989949493661167,0.));
#249=DIRECTION('',(-0.707106781186548,0.707106781186547,0.));
#250=DIRECTION('center_axis',(0.,0.,1.));
#251=DIRECTION('ref_axis',(0.655201741360129,0.755453954995706,0.));
#252=DIRECTION('center_axis',(0.,0.,-1.));
#253=DIRECTION('ref_axis',(0.655201741360129,0.755453954995706,0.));
#254=DIRECTION('',(0.,0.,-1.));
#255=DIRECTION('',(0.,0.,1.));
#256=DIRECTION('center_axis',(0.989949493661167,0.141421356237309,0.));
#257=DIRECTION('ref_axis',(0.,0.,-1.));
#258=DIRECTION('',(0.141421356237309,-0.989949493661167,0.));
#259=DIRECTION('',(0.,0.,1.));
#260=DIRECTION('center_axis',(-3.1720657846433E-16,1.,0.));
#261=DIRECTION('ref_axis',(0.,0.,1.));
#262=DIRECTION('',(0.,0.,1.));
#263=DIRECTION('',(1.,3.1720657846433E-16,0.));
#264=DIRECTION('center_axis',(0.707106781186547,0.707106781186548,0.));
#265=DIRECTION('ref_axis',(0.,0.,-1.));
#266=DIRECTION('',(0.707106781186548,-0.707106781186547,0.));
#267=DIRECTION('center_axis',(1.,1.58603289232165E-15,0.));
#268=DIRECTION('ref_axis',(0.,0.,-1.));
#269=DIRECTION('',(1.58603289232165E-15,-1.,0.));
#270=DIRECTION('',(0.,0.,1.));
#271=DIRECTION('center_axis',(1.11022302462516E-16,-1.,0.));
#272=DIRECTION('ref_axis',(0.,0.,-1.));
#273=DIRECTION('',(-1.,-1.11022302462516E-16,0.));
#274=DIRECTION('',(0.,0.,1.));
#275=DIRECTION('center_axis',(-1.,-2.22044604925031E-16,0.));
#276=DIRECTION('ref_axis',(0.,0.,1.));
#277=DIRECTION('',(-2.22044604925031E-16,1.,0.));
#278=DIRECTION('center_axis',(0.,0.,1.));
#279=DIRECTION('ref_axis',(1.,0.,0.));
#280=CARTESIAN_POINT('',(0.,0.,0.));
#281=CARTESIAN_POINT('Origin',(8.39018121546552,-22.0084927711837,0.));
#282=CARTESIAN_POINT('',(8.67302392794014,-20.0285937838614,1000.));
#283=CARTESIAN_POINT('',(10.3901812154655,-22.0084927711837,1000.));
#284=CARTESIAN_POINT('Origin',(8.39018121546552,-22.0084927711837,1000.));
#285=CARTESIAN_POINT('',(10.3901812154655,-22.0084927711837,0.));
#286=CARTESIAN_POINT('',(10.3901812154655,-22.0084927711837,0.));
#287=CARTESIAN_POINT('',(8.67302392794014,-20.0285937838614,0.));
#288=CARTESIAN_POINT('Origin',(8.39018121546552,-22.0084927711837,0.));
#289=CARTESIAN_POINT('',(8.67302392794014,-20.0285937838614,0.));
#290=CARTESIAN_POINT('Origin',(-3.60981878453448,-18.2739019677936,0.));
#291=CARTESIAN_POINT('',(-3.60981878453448,-18.2739019677936,0.));
#292=CARTESIAN_POINT('',(10.3901812154655,-20.2739019677936,0.));
#293=CARTESIAN_POINT('',(-3.60981878453448,-18.2739019677936,1000.));
#294=CARTESIAN_POINT('',(-3.60981878453448,-18.2739019677936,0.));
#295=CARTESIAN_POINT('',(10.3901812154655,-20.2739019677936,1000.));
#296=CARTESIAN_POINT('Origin',(-15.2237390175777,-12.8878222008368,0.));
#297=CARTESIAN_POINT('',(10.3901812154655,-27.2739019677936,0.));
#298=CARTESIAN_POINT('',(10.3901812154655,-27.2739019677936,0.));
#299=CARTESIAN_POINT('',(-29.6098187845345,-27.2739019677936,0.));
#300=CARTESIAN_POINT('',(-29.6098187845345,-27.2739019677936,0.));
#301=CARTESIAN_POINT('',(-29.6098187845345,12.7260980322064,0.));
#302=CARTESIAN_POINT('',(-29.6098187845345,12.7260980322064,0.));
#303=CARTESIAN_POINT('',(-24.3444095879246,12.7260980322064,0.));
#304=CARTESIAN_POINT('',(-22.6098187845345,12.7260980322064,0.));
#305=CARTESIAN_POINT('',(-22.3645106006023,11.008940744681,0.));
#306=CARTESIAN_POINT('Origin',(-24.3444095879246,10.7260980322064,0.));
#307=CARTESIAN_POINT('',(-20.6098187845345,-1.27390196779358,0.));
#308=CARTESIAN_POINT('',(-20.6098187845345,-1.27390196779358,0.));
#309=CARTESIAN_POINT('',(-3.60981878453448,-18.2739019677936,0.));
#310=CARTESIAN_POINT('Origin',(-24.3444095879246,10.7260980322064,0.));
#311=CARTESIAN_POINT('',(-24.3444095879246,12.7260980322064,1000.));
#312=CARTESIAN_POINT('',(-22.3645106006023,11.008940744681,1000.));
#313=CARTESIAN_POINT('Origin',(-24.3444095879246,10.7260980322064,1000.));
#314=CARTESIAN_POINT('',(-22.3645106006023,11.008940744681,0.));
#315=CARTESIAN_POINT('',(-24.3444095879246,12.7260980322064,0.));
#316=CARTESIAN_POINT('Origin',(-22.6098187845345,12.7260980322064,0.));
#317=CARTESIAN_POINT('',(-20.6098187845345,-1.27390196779358,1000.));
#318=CARTESIAN_POINT('',(-20.6098187845345,-1.27390196779358,1000.));
#319=CARTESIAN_POINT('',(-20.6098187845345,-1.27390196779358,0.));
#320=CARTESIAN_POINT('Origin',(-29.6098187845345,12.7260980322064,0.));
#321=CARTESIAN_POINT('',(-29.6098187845345,12.7260980322064,1000.));
#322=CARTESIAN_POINT('',(-29.6098187845345,12.7260980322064,0.));
#323=CARTESIAN_POINT('',(-22.6098187845345,12.7260980322064,1000.));
#324=CARTESIAN_POINT('Origin',(-20.6098187845345,-1.27390196779358,0.));
#325=CARTESIAN_POINT('',(-3.60981878453448,-18.2739019677936,1000.));
#326=CARTESIAN_POINT('Origin',(10.3901812154655,-20.2739019677936,0.));
#327=CARTESIAN_POINT('',(10.3901812154655,-27.2739019677936,1000.));
#328=CARTESIAN_POINT('',(10.3901812154655,-27.2739019677936,1000.));
#329=CARTESIAN_POINT('',(10.3901812154655,-27.2739019677936,0.));
#330=CARTESIAN_POINT('Origin',(10.3901812154655,-27.2739019677936,0.));
#331=CARTESIAN_POINT('',(-29.6098187845345,-27.2739019677936,1000.));
#332=CARTESIAN_POINT('',(-29.6098187845345,-27.2739019677936,1000.));
#333=CARTESIAN_POINT('',(-29.6098187845345,-27.2739019677936,0.));
#334=CARTESIAN_POINT('Origin',(-29.6098187845345,-27.2739019677936,0.));
#335=CARTESIAN_POINT('',(-29.6098187845345,12.7260980322064,1000.));
#336=CARTESIAN_POINT('Origin',(-15.2237390175777,-12.8878222008368,1000.));
#337=UNCERTAINTY_MEASURE_WITH_UNIT(LENGTH_MEASURE(0.01),#341,
'DISTANCE_ACCURACY_VALUE',
'Maximum model space distance between geometric entities at asserted c
onnectivities');
#338=UNCERTAINTY_MEASURE_WITH_UNIT(LENGTH_MEASURE(1.E-6),#341,
'DISTANCE_ACCURACY_VALUE',
'Maximum model space distance between geometric entities at asserted c
onnectivities');
#339=(
GEOMETRIC_REPRESENTATION_CONTEXT(3)
GLOBAL_UNCERTAINTY_ASSIGNED_CONTEXT((#337))
GLOBAL_UNIT_ASSIGNED_CONTEXT((#341,#344,#342))
REPRESENTATION_CONTEXT('','3D')
);
#340=(
GEOMETRIC_REPRESENTATION_CONTEXT(3)
GLOBAL_UNCERTAINTY_ASSIGNED_CONTEXT((#338))
GLOBAL_UNIT_ASSIGNED_CONTEXT((#341,#344,#342))
REPRESENTATION_CONTEXT('','3D')
);
#341=(
LENGTH_UNIT()
NAMED_UNIT(*)
SI_UNIT(.MILLI.,.METRE.)
);
#342=(
NAMED_UNIT(*)
SI_UNIT($,.STERADIAN.)
SOLID_ANGLE_UNIT()
);
#343=DIMENSIONAL_EXPONENTS(0.,0.,0.,0.,0.,0.,0.);
#344=(
CONVERSION_BASED_UNIT('degree',#346)
NAMED_UNIT(#343)
PLANE_ANGLE_UNIT()
);
#345=(
NAMED_UNIT(*)
PLANE_ANGLE_UNIT()
SI_UNIT($,.RADIAN.)
);
#346=PLANE_ANGLE_MEASURE_WITH_UNIT(PLANE_ANGLE_MEASURE(0.01745329252),#345);
#347=SHAPE_DEFINITION_REPRESENTATION(#348,#349);
#348=PRODUCT_DEFINITION_SHAPE('',$,#351);
#349=SHAPE_REPRESENTATION('',(#209),#339);
#350=PRODUCT_DEFINITION_CONTEXT('part definition',#355,'design');
#351=PRODUCT_DEFINITION(
'11471_KriTec_Strangpre\X\DFwinkelprofil_natur_40x40',
'11471_KriTec_Strangpre\X\DFwinkelprofil_natur_40x40',#352,#350);
#352=PRODUCT_DEFINITION_FORMATION('',$,#357);
#353=PRODUCT_RELATED_PRODUCT_CATEGORY(
'11471_KriTec_Strangpre\X\DFwinkelprofil_natur_40x40',
'11471_KriTec_Strangpre\X\DFwinkelprofil_natur_40x40',(#357));
#354=APPLICATION_PROTOCOL_DEFINITION('international standard',
'automotive_design',2009,#355);
#355=APPLICATION_CONTEXT(
'Core Data for Automotive Mechanical Design Process');
#356=PRODUCT_CONTEXT('part definition',#355,'mechanical');
#357=PRODUCT('11471_KriTec_Strangpre\X\DFwinkelprofil_natur_40x40',
'11471_KriTec_Strangpre\X\DFwinkelprofil_natur_40x40',$,(#356));
#358=PRESENTATION_STYLE_ASSIGNMENT((#359));
#359=SURFACE_STYLE_USAGE(.BOTH.,#360);
#360=SURFACE_SIDE_STYLE('',(#361));
#361=SURFACE_STYLE_FILL_AREA(#362);
#362=FILL_AREA_STYLE('',(#363));
#363=FILL_AREA_STYLE_COLOUR('',#364);
#364=COLOUR_RGB('',0.956862745098039,0.956862745098039,0.956862745098039);
ENDSEC;
END-ISO-10303-21;
