ISO-10303-21;
HEADER;
/* Generated by software containing ST-Developer
 * from STEP Tools, Inc. (www.steptools.com) 
 */

FILE_DESCRIPTION(
/* description */ (
'\X\09KriTec Stahlwinkel 6 30x30x30 mit Senkungen, schwarz'),
/* implementation_level */ '2;1');

FILE_NAME(
/* name */ 
'C:\\Arbeitsordner\\Designs\\Kuhlemann\\neuteile\\11444\\11444 KriTec 
Stahlwinkel 6 30x30x30 mit Senkungen, schwarz.stp',
/* time_stamp */ '2023-02-02T11:33:30+01:00',
/* author */ ('Nell'),
/* organization */ (''),
/* preprocessor_version */ 'ST-DEVELOPER v17',
/* originating_system */ 'Autodesk Inventor 2018',
/* authorisation */ ' ');

FILE_SCHEMA (('AUTOMOTIVE_DESIGN { 1 0 10303 214 3 1 1 }'));
ENDSEC;

DATA;
#10=MECHANICAL_DESIGN_GEOMETRIC_PRESENTATION_REPRESENTATION('',(#13),#373);
#11=SHAPE_REPRESENTATION_RELATIONSHIP('SRR','None',#380,#12);
#12=ADVANCED_BREP_SHAPE_REPRESENTATION('',(#14),#372);
#13=STYLED_ITEM('',(#389),#14);
#14=MANIFOLD_SOLID_BREP('Volumenk\X\F6rper1',#215);
#15=FACE_BOUND('',#40,.T.);
#16=FACE_BOUND('',#43,.T.);
#17=FACE_BOUND('',#48,.T.);
#18=FACE_BOUND('',#50,.T.);
#19=PLANE('',#245);
#20=PLANE('',#246);
#21=PLANE('',#247);
#22=PLANE('',#248);
#23=PLANE('',#249);
#24=PLANE('',#250);
#25=PLANE('',#251);
#26=PLANE('',#252);
#27=FACE_OUTER_BOUND('',#37,.T.);
#28=FACE_OUTER_BOUND('',#38,.T.);
#29=FACE_OUTER_BOUND('',#39,.T.);
#30=FACE_OUTER_BOUND('',#41,.T.);
#31=FACE_OUTER_BOUND('',#42,.T.);
#32=FACE_OUTER_BOUND('',#44,.T.);
#33=FACE_OUTER_BOUND('',#45,.T.);
#34=FACE_OUTER_BOUND('',#46,.T.);
#35=FACE_OUTER_BOUND('',#47,.T.);
#36=FACE_OUTER_BOUND('',#49,.T.);
#37=EDGE_LOOP('',(#147,#148,#149,#150,#151,#152));
#38=EDGE_LOOP('',(#153,#154,#155,#156,#157,#158));
#39=EDGE_LOOP('',(#159,#160,#161,#162));
#40=EDGE_LOOP('',(#163,#164));
#41=EDGE_LOOP('',(#165,#166,#167,#168,#169,#170));
#42=EDGE_LOOP('',(#171,#172,#173,#174));
#43=EDGE_LOOP('',(#175,#176));
#44=EDGE_LOOP('',(#177,#178,#179,#180,#181,#182));
#45=EDGE_LOOP('',(#183,#184,#185,#186));
#46=EDGE_LOOP('',(#187,#188,#189,#190));
#47=EDGE_LOOP('',(#191,#192,#193,#194));
#48=EDGE_LOOP('',(#195,#196));
#49=EDGE_LOOP('',(#197,#198,#199,#200));
#50=EDGE_LOOP('',(#201,#202));
#51=LINE('',#317,#71);
#52=LINE('',#327,#72);
#53=LINE('',#335,#73);
#54=LINE('',#337,#74);
#55=LINE('',#339,#75);
#56=LINE('',#340,#76);
#57=LINE('',#344,#77);
#58=LINE('',#345,#78);
#59=LINE('',#347,#79);
#60=LINE('',#349,#80);
#61=LINE('',#350,#81);
#62=LINE('',#353,#82);
#63=LINE('',#354,#83);
#64=LINE('',#357,#84);
#65=LINE('',#359,#85);
#66=LINE('',#361,#86);
#67=LINE('',#362,#87);
#68=LINE('',#364,#88);
#69=LINE('',#366,#89);
#70=LINE('',#368,#90);
#71=VECTOR('',#259,6.39999999992824);
#72=VECTOR('',#270,6.40000000005557);
#73=VECTOR('',#279,1000.);
#74=VECTOR('',#280,1000.);
#75=VECTOR('',#281,1000.);
#76=VECTOR('',#282,1000.);
#77=VECTOR('',#285,1000.);
#78=VECTOR('',#286,1000.);
#79=VECTOR('',#287,1000.);
#80=VECTOR('',#288,1000.);
#81=VECTOR('',#289,1000.);
#82=VECTOR('',#292,1000.);
#83=VECTOR('',#293,1000.);
#84=VECTOR('',#296,1000.);
#85=VECTOR('',#297,1000.);
#86=VECTOR('',#298,1000.);
#87=VECTOR('',#299,1000.);
#88=VECTOR('',#302,1000.);
#89=VECTOR('',#305,1000.);
#90=VECTOR('',#308,1000.);
#91=CIRCLE('',#236,3.39999999999918);
#92=CIRCLE('',#237,6.39999999998508);
#93=CIRCLE('',#238,6.39999999998508);
#94=CIRCLE('',#239,3.39999999999918);
#95=CIRCLE('',#241,3.40000000001283);
#96=CIRCLE('',#242,6.40000000011241);
#97=CIRCLE('',#243,6.40000000011241);
#98=CIRCLE('',#244,3.40000000001283);
#99=VERTEX_POINT('',#313);
#100=VERTEX_POINT('',#314);
#101=VERTEX_POINT('',#316);
#102=VERTEX_POINT('',#318);
#103=VERTEX_POINT('',#323);
#104=VERTEX_POINT('',#324);
#105=VERTEX_POINT('',#326);
#106=VERTEX_POINT('',#328);
#107=VERTEX_POINT('',#333);
#108=VERTEX_POINT('',#334);
#109=VERTEX_POINT('',#336);
#110=VERTEX_POINT('',#338);
#111=VERTEX_POINT('',#342);
#112=VERTEX_POINT('',#343);
#113=VERTEX_POINT('',#346);
#114=VERTEX_POINT('',#348);
#115=VERTEX_POINT('',#352);
#116=VERTEX_POINT('',#356);
#117=VERTEX_POINT('',#358);
#118=VERTEX_POINT('',#360);
#119=EDGE_CURVE('',#99,#100,#91,.T.);
#120=EDGE_CURVE('',#100,#101,#51,.T.);
#121=EDGE_CURVE('',#102,#101,#92,.T.);
#122=EDGE_CURVE('',#101,#102,#93,.T.);
#123=EDGE_CURVE('',#100,#99,#94,.T.);
#124=EDGE_CURVE('',#103,#104,#95,.T.);
#125=EDGE_CURVE('',#104,#105,#52,.T.);
#126=EDGE_CURVE('',#105,#106,#96,.T.);
#127=EDGE_CURVE('',#106,#105,#97,.T.);
#128=EDGE_CURVE('',#104,#103,#98,.T.);
#129=EDGE_CURVE('',#107,#108,#53,.T.);
#130=EDGE_CURVE('',#109,#107,#54,.T.);
#131=EDGE_CURVE('',#110,#109,#55,.T.);
#132=EDGE_CURVE('',#108,#110,#56,.T.);
#133=EDGE_CURVE('',#111,#112,#57,.T.);
#134=EDGE_CURVE('',#112,#108,#58,.T.);
#135=EDGE_CURVE('',#110,#113,#59,.T.);
#136=EDGE_CURVE('',#113,#114,#60,.T.);
#137=EDGE_CURVE('',#114,#111,#61,.T.);
#138=EDGE_CURVE('',#115,#112,#62,.T.);
#139=EDGE_CURVE('',#107,#115,#63,.T.);
#140=EDGE_CURVE('',#116,#115,#64,.T.);
#141=EDGE_CURVE('',#117,#116,#65,.T.);
#142=EDGE_CURVE('',#118,#117,#66,.T.);
#143=EDGE_CURVE('',#109,#118,#67,.T.);
#144=EDGE_CURVE('',#113,#118,#68,.T.);
#145=EDGE_CURVE('',#116,#111,#69,.T.);
#146=EDGE_CURVE('',#117,#114,#70,.T.);
#147=ORIENTED_EDGE('',*,*,#119,.T.);
#148=ORIENTED_EDGE('',*,*,#120,.T.);
#149=ORIENTED_EDGE('',*,*,#121,.F.);
#150=ORIENTED_EDGE('',*,*,#122,.F.);
#151=ORIENTED_EDGE('',*,*,#120,.F.);
#152=ORIENTED_EDGE('',*,*,#123,.T.);
#153=ORIENTED_EDGE('',*,*,#124,.T.);
#154=ORIENTED_EDGE('',*,*,#125,.T.);
#155=ORIENTED_EDGE('',*,*,#126,.T.);
#156=ORIENTED_EDGE('',*,*,#127,.T.);
#157=ORIENTED_EDGE('',*,*,#125,.F.);
#158=ORIENTED_EDGE('',*,*,#128,.T.);
#159=ORIENTED_EDGE('',*,*,#129,.F.);
#160=ORIENTED_EDGE('',*,*,#130,.F.);
#161=ORIENTED_EDGE('',*,*,#131,.F.);
#162=ORIENTED_EDGE('',*,*,#132,.F.);
#163=ORIENTED_EDGE('',*,*,#119,.F.);
#164=ORIENTED_EDGE('',*,*,#123,.F.);
#165=ORIENTED_EDGE('',*,*,#133,.T.);
#166=ORIENTED_EDGE('',*,*,#134,.T.);
#167=ORIENTED_EDGE('',*,*,#132,.T.);
#168=ORIENTED_EDGE('',*,*,#135,.T.);
#169=ORIENTED_EDGE('',*,*,#136,.T.);
#170=ORIENTED_EDGE('',*,*,#137,.T.);
#171=ORIENTED_EDGE('',*,*,#138,.F.);
#172=ORIENTED_EDGE('',*,*,#139,.F.);
#173=ORIENTED_EDGE('',*,*,#129,.T.);
#174=ORIENTED_EDGE('',*,*,#134,.F.);
#175=ORIENTED_EDGE('',*,*,#124,.F.);
#176=ORIENTED_EDGE('',*,*,#128,.F.);
#177=ORIENTED_EDGE('',*,*,#139,.T.);
#178=ORIENTED_EDGE('',*,*,#140,.F.);
#179=ORIENTED_EDGE('',*,*,#141,.F.);
#180=ORIENTED_EDGE('',*,*,#142,.F.);
#181=ORIENTED_EDGE('',*,*,#143,.F.);
#182=ORIENTED_EDGE('',*,*,#130,.T.);
#183=ORIENTED_EDGE('',*,*,#131,.T.);
#184=ORIENTED_EDGE('',*,*,#143,.T.);
#185=ORIENTED_EDGE('',*,*,#144,.F.);
#186=ORIENTED_EDGE('',*,*,#135,.F.);
#187=ORIENTED_EDGE('',*,*,#145,.F.);
#188=ORIENTED_EDGE('',*,*,#140,.T.);
#189=ORIENTED_EDGE('',*,*,#138,.T.);
#190=ORIENTED_EDGE('',*,*,#133,.F.);
#191=ORIENTED_EDGE('',*,*,#146,.F.);
#192=ORIENTED_EDGE('',*,*,#141,.T.);
#193=ORIENTED_EDGE('',*,*,#145,.T.);
#194=ORIENTED_EDGE('',*,*,#137,.F.);
#195=ORIENTED_EDGE('',*,*,#127,.F.);
#196=ORIENTED_EDGE('',*,*,#126,.F.);
#197=ORIENTED_EDGE('',*,*,#144,.T.);
#198=ORIENTED_EDGE('',*,*,#142,.T.);
#199=ORIENTED_EDGE('',*,*,#146,.T.);
#200=ORIENTED_EDGE('',*,*,#136,.F.);
#201=ORIENTED_EDGE('',*,*,#121,.T.);
#202=ORIENTED_EDGE('',*,*,#122,.T.);
#203=CONICAL_SURFACE('',#235,6.39999999992824,0.785398163397448);
#204=CONICAL_SURFACE('',#240,6.40000000005557,0.785398163397448);
#205=ADVANCED_FACE('',(#27),#203,.F.);
#206=ADVANCED_FACE('',(#28),#204,.F.);
#207=ADVANCED_FACE('',(#29,#15),#19,.F.);
#208=ADVANCED_FACE('',(#30),#20,.T.);
#209=ADVANCED_FACE('',(#31,#16),#21,.F.);
#210=ADVANCED_FACE('',(#32),#22,.F.);
#211=ADVANCED_FACE('',(#33),#23,.F.);
#212=ADVANCED_FACE('',(#34),#24,.F.);
#213=ADVANCED_FACE('',(#35,#17),#25,.F.);
#214=ADVANCED_FACE('',(#36,#18),#26,.F.);
#215=CLOSED_SHELL('',(#205,#206,#207,#208,#209,#210,#211,#212,#213,#214));
#216=DERIVED_UNIT_ELEMENT(#218,1.);
#217=DERIVED_UNIT_ELEMENT(#375,3.);
#218=(
MASS_UNIT()
NAMED_UNIT(*)
SI_UNIT($,.GRAM.)
);
#219=DERIVED_UNIT((#216,#217));
#220=MEASURE_REPRESENTATION_ITEM('density measure',
POSITIVE_RATIO_MEASURE(7.85),#219);
#221=PROPERTY_DEFINITION_REPRESENTATION(#226,#223);
#222=PROPERTY_DEFINITION_REPRESENTATION(#227,#224);
#223=REPRESENTATION('material name',(#225),#372);
#224=REPRESENTATION('density',(#220),#372);
#225=DESCRIPTIVE_REPRESENTATION_ITEM('1.0037 St 37-2','1.0037 St 37-2');
#226=PROPERTY_DEFINITION('material property','material name',#382);
#227=PROPERTY_DEFINITION('material property','density of part',#382);
#228=DATE_TIME_ROLE('creation_date');
#229=APPLIED_DATE_AND_TIME_ASSIGNMENT(#230,#228,(#382));
#230=DATE_AND_TIME(#231,#232);
#231=CALENDAR_DATE(2017,6,3);
#232=LOCAL_TIME(17,16,43.,#233);
#233=COORDINATED_UNIVERSAL_TIME_OFFSET(0,0,.BEHIND.);
#234=AXIS2_PLACEMENT_3D('placement',#311,#253,#254);
#235=AXIS2_PLACEMENT_3D('',#312,#255,#256);
#236=AXIS2_PLACEMENT_3D('',#315,#257,#258);
#237=AXIS2_PLACEMENT_3D('',#319,#260,#261);
#238=AXIS2_PLACEMENT_3D('',#320,#262,#263);
#239=AXIS2_PLACEMENT_3D('',#321,#264,#265);
#240=AXIS2_PLACEMENT_3D('',#322,#266,#267);
#241=AXIS2_PLACEMENT_3D('',#325,#268,#269);
#242=AXIS2_PLACEMENT_3D('',#329,#271,#272);
#243=AXIS2_PLACEMENT_3D('',#330,#273,#274);
#244=AXIS2_PLACEMENT_3D('',#331,#275,#276);
#245=AXIS2_PLACEMENT_3D('',#332,#277,#278);
#246=AXIS2_PLACEMENT_3D('',#341,#283,#284);
#247=AXIS2_PLACEMENT_3D('',#351,#290,#291);
#248=AXIS2_PLACEMENT_3D('',#355,#294,#295);
#249=AXIS2_PLACEMENT_3D('',#363,#300,#301);
#250=AXIS2_PLACEMENT_3D('',#365,#303,#304);
#251=AXIS2_PLACEMENT_3D('',#367,#306,#307);
#252=AXIS2_PLACEMENT_3D('',#369,#309,#310);
#253=DIRECTION('axis',(0.,0.,1.));
#254=DIRECTION('refdir',(1.,0.,0.));
#255=DIRECTION('center_axis',(1.,0.,0.));
#256=DIRECTION('ref_axis',(0.,0.,-1.));
#257=DIRECTION('center_axis',(-1.,0.,0.));
#258=DIRECTION('ref_axis',(0.,0.,-1.));
#259=DIRECTION('',(0.707106781186548,-8.65956056235493E-17,0.707106781186547));
#260=DIRECTION('center_axis',(-1.,0.,0.));
#261=DIRECTION('ref_axis',(0.,0.,-1.));
#262=DIRECTION('center_axis',(-1.,0.,0.));
#263=DIRECTION('ref_axis',(0.,0.,-1.));
#264=DIRECTION('center_axis',(-1.,0.,0.));
#265=DIRECTION('ref_axis',(0.,0.,-1.));
#266=DIRECTION('center_axis',(-2.71050543119022E-16,1.,3.38813178898778E-17));
#267=DIRECTION('ref_axis',(-1.,-2.71050543119022E-16,0.));
#268=DIRECTION('center_axis',(3.049318610089E-16,-1.,-3.38813178898778E-17));
#269=DIRECTION('ref_axis',(-1.,-3.049318610089E-16,0.));
#270=DIRECTION('',(0.707106781186547,0.707106781186548,-6.26378959880796E-17));
#271=DIRECTION('center_axis',(-3.38813178895769E-16,1.,3.38813178898778E-17));
#272=DIRECTION('ref_axis',(-1.,-3.38813178895769E-16,0.));
#273=DIRECTION('center_axis',(-3.38813178895769E-16,1.,3.38813178898778E-17));
#274=DIRECTION('ref_axis',(-1.,-3.38813178895769E-16,0.));
#275=DIRECTION('center_axis',(3.049318610089E-16,-1.,-3.38813178898778E-17));
#276=DIRECTION('ref_axis',(-1.,-3.049318610089E-16,0.));
#277=DIRECTION('center_axis',(1.,0.,0.));
#278=DIRECTION('ref_axis',(0.,1.,0.));
#279=DIRECTION('',(0.,0.,-1.));
#280=DIRECTION('',(0.,-1.,0.));
#281=DIRECTION('',(0.,0.,1.));
#282=DIRECTION('',(0.,1.,0.));
#283=DIRECTION('center_axis',(0.,0.,-1.));
#284=DIRECTION('ref_axis',(0.,-1.,0.));
#285=DIRECTION('',(0.,-1.,0.));
#286=DIRECTION('',(-1.,0.,0.));
#287=DIRECTION('',(1.,0.,0.));
#288=DIRECTION('',(0.,-1.,0.));
#289=DIRECTION('',(1.,0.,0.));
#290=DIRECTION('center_axis',(0.,1.,0.));
#291=DIRECTION('ref_axis',(1.,0.,0.));
#292=DIRECTION('',(0.,0.,-1.));
#293=DIRECTION('',(1.,0.,0.));
#294=DIRECTION('center_axis',(0.,0.,-1.));
#295=DIRECTION('ref_axis',(0.,-1.,0.));
#296=DIRECTION('',(0.,-1.,0.));
#297=DIRECTION('',(1.,0.,0.));
#298=DIRECTION('',(0.,-1.,0.));
#299=DIRECTION('',(1.,0.,0.));
#300=DIRECTION('center_axis',(0.,-1.,0.));
#301=DIRECTION('ref_axis',(0.,0.,-1.));
#302=DIRECTION('',(0.,0.,1.));
#303=DIRECTION('center_axis',(-1.,0.,0.));
#304=DIRECTION('ref_axis',(0.,0.,1.));
#305=DIRECTION('',(0.,0.,-1.));
#306=DIRECTION('center_axis',(1.60622544071927E-17,-1.,0.));
#307=DIRECTION('ref_axis',(0.,0.,-1.));
#308=DIRECTION('',(0.,0.,-1.));
#309=DIRECTION('center_axis',(-1.,-1.28498035257541E-16,0.));
#310=DIRECTION('ref_axis',(-1.28498035257541E-16,1.,0.));
#311=CARTESIAN_POINT('',(0.,0.,0.));
#312=CARTESIAN_POINT('Origin',(2.99999999992906,15.,0.));
#313=CARTESIAN_POINT('',(0.,15.,-3.39999999999918));
#314=CARTESIAN_POINT('',(-2.22044604925031E-15,15.,3.39999999999918));
#315=CARTESIAN_POINT('Origin',(0.,15.,0.));
#316=CARTESIAN_POINT('',(2.9999999999859,15.,6.39999999998508));
#317=CARTESIAN_POINT('',(2.99999999992906,15.,6.39999999992824));
#318=CARTESIAN_POINT('',(2.9999999999859,15.,-6.39999999998508));
#319=CARTESIAN_POINT('Origin',(2.9999999999859,15.,0.));
#320=CARTESIAN_POINT('Origin',(2.9999999999859,15.,0.));
#321=CARTESIAN_POINT('Origin',(0.,15.,0.));
#322=CARTESIAN_POINT('Origin',(15.,3.00000000004275,7.3468396925755E-33));
#323=CARTESIAN_POINT('',(11.5999999999872,6.97955148542634E-16,-1.01643953671082E-16));
#324=CARTESIAN_POINT('',(18.4000000000128,4.9960036108132E-15,-5.18023865382753E-16));
#325=CARTESIAN_POINT('Origin',(15.,1.73472347597681E-15,-1.01643953671082E-16));
#326=CARTESIAN_POINT('',(21.4000000001124,3.00000000009959,-7.83773951466147E-16));
#327=CARTESIAN_POINT('',(21.4000000000556,3.00000000004275,-7.83773951461111E-16));
#328=CARTESIAN_POINT('',(8.59999999988759,3.00000000009959,1.92585647597359E-27));
#329=CARTESIAN_POINT('Origin',(15.,3.00000000009959,1.92587116965297E-27));
#330=CARTESIAN_POINT('Origin',(15.,3.00000000009959,1.92587116965297E-27));
#331=CARTESIAN_POINT('Origin',(15.,1.73472347597681E-15,-1.01643953671082E-16));
#332=CARTESIAN_POINT('Origin',(0.,0.,15.));
#333=CARTESIAN_POINT('',(0.,0.,15.));
#334=CARTESIAN_POINT('',(0.,0.,-15.));
#335=CARTESIAN_POINT('',(0.,0.,15.));
#336=CARTESIAN_POINT('',(0.,30.,15.));
#337=CARTESIAN_POINT('',(0.,0.,15.));
#338=CARTESIAN_POINT('',(0.,30.,-15.));
#339=CARTESIAN_POINT('',(0.,30.,15.));
#340=CARTESIAN_POINT('',(0.,0.,-15.));
#341=CARTESIAN_POINT('Origin',(0.,30.,-15.));
#342=CARTESIAN_POINT('',(30.,3.,-15.));
#343=CARTESIAN_POINT('',(30.,0.,-15.));
#344=CARTESIAN_POINT('',(30.,30.,-15.));
#345=CARTESIAN_POINT('',(0.,0.,-15.));
#346=CARTESIAN_POINT('',(3.,30.,-15.));
#347=CARTESIAN_POINT('',(0.,30.,-15.));
#348=CARTESIAN_POINT('',(3.,3.,-15.));
#349=CARTESIAN_POINT('',(3.,30.,-15.));
#350=CARTESIAN_POINT('',(0.,3.,-15.));
#351=CARTESIAN_POINT('Origin',(0.,0.,15.));
#352=CARTESIAN_POINT('',(30.,0.,15.));
#353=CARTESIAN_POINT('',(30.,0.,15.));
#354=CARTESIAN_POINT('',(0.,0.,15.));
#355=CARTESIAN_POINT('Origin',(0.,30.,15.));
#356=CARTESIAN_POINT('',(30.,3.,15.));
#357=CARTESIAN_POINT('',(30.,30.,15.));
#358=CARTESIAN_POINT('',(3.,3.,15.));
#359=CARTESIAN_POINT('',(0.,3.,15.));
#360=CARTESIAN_POINT('',(3.,30.,15.));
#361=CARTESIAN_POINT('',(3.,30.,15.));
#362=CARTESIAN_POINT('',(0.,30.,15.));
#363=CARTESIAN_POINT('Origin',(0.,30.,15.));
#364=CARTESIAN_POINT('',(3.,30.,15.));
#365=CARTESIAN_POINT('Origin',(30.,0.,15.));
#366=CARTESIAN_POINT('',(30.,3.,15.));
#367=CARTESIAN_POINT('Origin',(3.,3.,15.));
#368=CARTESIAN_POINT('',(3.,3.,15.));
#369=CARTESIAN_POINT('Origin',(3.,30.,15.));
#370=UNCERTAINTY_MEASURE_WITH_UNIT(LENGTH_MEASURE(0.01),#374,
'DISTANCE_ACCURACY_VALUE',
'Maximum model space distance between geometric entities at asserted c
onnectivities');
#371=UNCERTAINTY_MEASURE_WITH_UNIT(LENGTH_MEASURE(0.01),#374,
'DISTANCE_ACCURACY_VALUE',
'Maximum model space distance between geometric entities at asserted c
onnectivities');
#372=(
GEOMETRIC_REPRESENTATION_CONTEXT(3)
GLOBAL_UNCERTAINTY_ASSIGNED_CONTEXT((#370))
GLOBAL_UNIT_ASSIGNED_CONTEXT((#374,#377,#376))
REPRESENTATION_CONTEXT('','3D')
);
#373=(
GEOMETRIC_REPRESENTATION_CONTEXT(3)
GLOBAL_UNCERTAINTY_ASSIGNED_CONTEXT((#371))
GLOBAL_UNIT_ASSIGNED_CONTEXT((#374,#377,#376))
REPRESENTATION_CONTEXT('','3D')
);
#374=(
LENGTH_UNIT()
NAMED_UNIT(*)
SI_UNIT(.MILLI.,.METRE.)
);
#375=(
LENGTH_UNIT()
NAMED_UNIT(*)
SI_UNIT(.CENTI.,.METRE.)
);
#376=(
NAMED_UNIT(*)
SI_UNIT($,.STERADIAN.)
SOLID_ANGLE_UNIT()
);
#377=(
NAMED_UNIT(*)
PLANE_ANGLE_UNIT()
SI_UNIT($,.RADIAN.)
);
#378=SHAPE_DEFINITION_REPRESENTATION(#379,#380);
#379=PRODUCT_DEFINITION_SHAPE('',$,#382);
#380=SHAPE_REPRESENTATION('',(#234),#372);
#381=PRODUCT_DEFINITION_CONTEXT('part definition',#386,'design');
#382=PRODUCT_DEFINITION('11444',
'11444 KriTec Stahlwinkel 6 30x30x30 mit Senkungen, schwarz',#383,#381);
#383=PRODUCT_DEFINITION_FORMATION('',$,#388);
#384=PRODUCT_RELATED_PRODUCT_CATEGORY(
'11444 KriTec Stahlwinkel 6 30x30x30 mit Senkungen, schwarz',
'11444 KriTec Stahlwinkel 6 30x30x30 mit Senkungen, schwarz',(#388));
#385=APPLICATION_PROTOCOL_DEFINITION('international standard',
'automotive_design',2009,#386);
#386=APPLICATION_CONTEXT(
'Core Data for Automotive Mechanical Design Process');
#387=PRODUCT_CONTEXT('part definition',#386,'mechanical');
#388=PRODUCT('11444',
'11444 KriTec Stahlwinkel 6 30x30x30 mit Senkungen, schwarz',
'\X\09KriTec Stahlwinkel 6 30x30x30 mit Senkungen, schwarz',(#387));
#389=PRESENTATION_STYLE_ASSIGNMENT((#390));
#390=SURFACE_STYLE_USAGE(.BOTH.,#391);
#391=SURFACE_SIDE_STYLE('',(#392));
#392=SURFACE_STYLE_FILL_AREA(#393);
#393=FILL_AREA_STYLE('',(#394));
#394=FILL_AREA_STYLE_COLOUR('',#395);
#395=COLOUR_RGB('',0.250980392156863,0.250980392156863,0.250980392156863);
ENDSEC;
END-ISO-10303-21;
