ISO-10303-21;
HEADER;
/* Generated by software containing ST-Developer
 * from STEP Tools, Inc. (www.steptools.com) 
 */

FILE_DESCRIPTION(
/* description */ ('KriTec Parabel-Puffer \X\D875x89 M12 mit Innengewi
nde'),
/* implementation_level */ '2;1');

FILE_NAME(
/* name */ 
'C:\\Arbeitsordner\\Designs\\Kuhlemann\\neuteile\\11400\\11400_KriTec_
Parabel-Puffer_\X\D875x89_M12_mit_Innengewinde.stp',
/* time_stamp */ '2019-06-07T13:56:16+02:00',
/* author */ ('Nell'),
/* organization */ ('Unknown'),
/* preprocessor_version */ 'ST-DEVELOPER v17',
/* originating_system */ 'Autodesk Inventor 2018',
/* authorisation */ '  ');

FILE_SCHEMA (('AUTOMOTIVE_DESIGN { 1 0 10303 214 3 1 1 }'));
ENDSEC;

DATA;
#10=MECHANICAL_DESIGN_GEOMETRIC_PRESENTATION_REPRESENTATION('',(#13),#259);
#11=SHAPE_REPRESENTATION_RELATIONSHIP('SRR','None',#266,#12);
#12=ADVANCED_BREP_SHAPE_REPRESENTATION('',(#14),#258);
#13=STYLED_ITEM('',(#275),#14);
#14=MANIFOLD_SOLID_BREP('Volumenk\X\F6rper1',#122);
#15=CYLINDRICAL_SURFACE('',#152,5.053);
#16=CYLINDRICAL_SURFACE('',#153,37.5);
#17=(
BOUNDED_SURFACE()
B_SPLINE_SURFACE(2,2,((#213,#214,#215,#216,#217,#218,#219,#220,#221),(#222,
#223,#224,#225,#226,#227,#228,#229,#230),(#231,#232,#233,#234,#235,#236,
#237,#238,#239)),.UNSPECIFIED.,.F.,.T.,.F.)
B_SPLINE_SURFACE_WITH_KNOTS((3,3),(3,2,2,2,3),(-0.775422420198491,-0.000435939679504905),
(-3.14159265358979,-1.5707963267949,0.,1.5707963267949,3.14159265358979),
 .UNSPECIFIED.)
GEOMETRIC_REPRESENTATION_ITEM()
RATIONAL_B_SPLINE_SURFACE(((1.,0.707106781186548,1.,0.707106781186548,1.,
0.707106781186548,1.,0.707106781186548,1.),(0.925859193881242,0.654681314417337,
0.925859193881242,0.654681314417337,0.925859193881242,0.654681314417337,
0.925859193881242,0.654681314417337,0.925859193881242),(1.,0.707106781186548,
1.,0.707106781186548,1.,0.707106781186548,1.,0.707106781186548,1.)))
REPRESENTATION_ITEM('')
SURFACE()
);
#18=LINE('',#210,#21);
#19=LINE('',#253,#22);
#20=LINE('',#255,#23);
#21=VECTOR('',#170,6.053);
#22=VECTOR('',#191,5.053);
#23=VECTOR('',#194,37.5);
#24=CONICAL_SURFACE('',#141,6.053,0.785398163397448);
#25=FACE_BOUND('',#35,.T.);
#26=FACE_BOUND('',#40,.T.);
#27=FACE_OUTER_BOUND('',#34,.T.);
#28=FACE_OUTER_BOUND('',#36,.T.);
#29=FACE_OUTER_BOUND('',#37,.T.);
#30=FACE_OUTER_BOUND('',#38,.T.);
#31=FACE_OUTER_BOUND('',#39,.T.);
#32=FACE_OUTER_BOUND('',#41,.T.);
#33=FACE_OUTER_BOUND('',#42,.T.);
#34=EDGE_LOOP('',(#82,#83));
#35=EDGE_LOOP('',(#84,#85));
#36=EDGE_LOOP('',(#86,#87,#88,#89,#90));
#37=EDGE_LOOP('',(#91,#92,#93,#94));
#38=EDGE_LOOP('',(#95,#96));
#39=EDGE_LOOP('',(#97,#98));
#40=EDGE_LOOP('',(#99));
#41=EDGE_LOOP('',(#100,#101,#102,#103,#104,#105));
#42=EDGE_LOOP('',(#106,#107,#108,#109,#110,#111));
#43=CIRCLE('',#137,37.5);
#44=CIRCLE('',#138,37.5);
#45=CIRCLE('',#139,35.5513539214859);
#46=CIRCLE('',#140,35.5513539214859);
#47=CIRCLE('',#142,5.053);
#48=CIRCLE('',#143,6.053);
#49=CIRCLE('',#144,5.053);
#50=CIRCLE('',#145,124.36);
#51=CIRCLE('',#147,5.053);
#52=CIRCLE('',#148,5.053);
#53=CIRCLE('',#150,37.5);
#54=CIRCLE('',#151,37.5);
#55=VERTEX_POINT('',#197);
#56=VERTEX_POINT('',#198);
#57=VERTEX_POINT('',#201);
#58=VERTEX_POINT('',#202);
#59=VERTEX_POINT('',#206);
#60=VERTEX_POINT('',#207);
#61=VERTEX_POINT('',#209);
#62=VERTEX_POINT('',#240);
#63=VERTEX_POINT('',#243);
#64=VERTEX_POINT('',#244);
#65=VERTEX_POINT('',#248);
#66=VERTEX_POINT('',#249);
#67=EDGE_CURVE('',#55,#56,#43,.T.);
#68=EDGE_CURVE('',#56,#55,#44,.T.);
#69=EDGE_CURVE('',#57,#58,#45,.T.);
#70=EDGE_CURVE('',#58,#57,#46,.T.);
#71=EDGE_CURVE('',#59,#60,#47,.F.);
#72=EDGE_CURVE('',#59,#61,#18,.T.);
#73=EDGE_CURVE('',#61,#61,#48,.T.);
#74=EDGE_CURVE('',#60,#59,#49,.F.);
#75=EDGE_CURVE('',#58,#62,#50,.T.);
#76=EDGE_CURVE('',#63,#64,#51,.T.);
#77=EDGE_CURVE('',#64,#63,#52,.T.);
#78=EDGE_CURVE('',#65,#66,#53,.T.);
#79=EDGE_CURVE('',#66,#65,#54,.T.);
#80=EDGE_CURVE('',#64,#60,#19,.T.);
#81=EDGE_CURVE('',#56,#66,#20,.T.);
#82=ORIENTED_EDGE('',*,*,#67,.F.);
#83=ORIENTED_EDGE('',*,*,#68,.F.);
#84=ORIENTED_EDGE('',*,*,#69,.T.);
#85=ORIENTED_EDGE('',*,*,#70,.T.);
#86=ORIENTED_EDGE('',*,*,#71,.F.);
#87=ORIENTED_EDGE('',*,*,#72,.T.);
#88=ORIENTED_EDGE('',*,*,#73,.F.);
#89=ORIENTED_EDGE('',*,*,#72,.F.);
#90=ORIENTED_EDGE('',*,*,#74,.F.);
#91=ORIENTED_EDGE('',*,*,#69,.F.);
#92=ORIENTED_EDGE('',*,*,#70,.F.);
#93=ORIENTED_EDGE('',*,*,#75,.T.);
#94=ORIENTED_EDGE('',*,*,#75,.F.);
#95=ORIENTED_EDGE('',*,*,#76,.T.);
#96=ORIENTED_EDGE('',*,*,#77,.T.);
#97=ORIENTED_EDGE('',*,*,#78,.T.);
#98=ORIENTED_EDGE('',*,*,#79,.T.);
#99=ORIENTED_EDGE('',*,*,#73,.T.);
#100=ORIENTED_EDGE('',*,*,#76,.F.);
#101=ORIENTED_EDGE('',*,*,#77,.F.);
#102=ORIENTED_EDGE('',*,*,#80,.T.);
#103=ORIENTED_EDGE('',*,*,#74,.T.);
#104=ORIENTED_EDGE('',*,*,#71,.T.);
#105=ORIENTED_EDGE('',*,*,#80,.F.);
#106=ORIENTED_EDGE('',*,*,#67,.T.);
#107=ORIENTED_EDGE('',*,*,#81,.T.);
#108=ORIENTED_EDGE('',*,*,#78,.F.);
#109=ORIENTED_EDGE('',*,*,#79,.F.);
#110=ORIENTED_EDGE('',*,*,#81,.F.);
#111=ORIENTED_EDGE('',*,*,#68,.T.);
#112=PLANE('',#136);
#113=PLANE('',#146);
#114=PLANE('',#149);
#115=ADVANCED_FACE('',(#27,#25),#112,.F.);
#116=ADVANCED_FACE('',(#28),#24,.F.);
#117=ADVANCED_FACE('',(#29),#17,.F.);
#118=ADVANCED_FACE('',(#30),#113,.F.);
#119=ADVANCED_FACE('',(#31,#26),#114,.F.);
#120=ADVANCED_FACE('',(#32),#15,.F.);
#121=ADVANCED_FACE('',(#33),#16,.T.);
#122=CLOSED_SHELL('',(#115,#116,#117,#118,#119,#120,#121));
#123=DERIVED_UNIT_ELEMENT(#125,1.);
#124=DERIVED_UNIT_ELEMENT(#261,3.);
#125=(
MASS_UNIT()
NAMED_UNIT(*)
SI_UNIT($,.GRAM.)
);
#126=DERIVED_UNIT((#123,#124));
#127=MEASURE_REPRESENTATION_ITEM('density measure',
POSITIVE_RATIO_MEASURE(1.),#126);
#128=PROPERTY_DEFINITION_REPRESENTATION(#133,#130);
#129=PROPERTY_DEFINITION_REPRESENTATION(#134,#131);
#130=REPRESENTATION('material name',(#132),#258);
#131=REPRESENTATION('density',(#127),#258);
#132=DESCRIPTIVE_REPRESENTATION_ITEM('Generisch','Generisch');
#133=PROPERTY_DEFINITION('material property','material name',#268);
#134=PROPERTY_DEFINITION('material property','density of part',#268);
#135=AXIS2_PLACEMENT_3D('placement',#195,#154,#155);
#136=AXIS2_PLACEMENT_3D('',#196,#156,#157);
#137=AXIS2_PLACEMENT_3D('',#199,#158,#159);
#138=AXIS2_PLACEMENT_3D('',#200,#160,#161);
#139=AXIS2_PLACEMENT_3D('',#203,#162,#163);
#140=AXIS2_PLACEMENT_3D('',#204,#164,#165);
#141=AXIS2_PLACEMENT_3D('',#205,#166,#167);
#142=AXIS2_PLACEMENT_3D('',#208,#168,#169);
#143=AXIS2_PLACEMENT_3D('',#211,#171,#172);
#144=AXIS2_PLACEMENT_3D('',#212,#173,#174);
#145=AXIS2_PLACEMENT_3D('',#241,#175,#176);
#146=AXIS2_PLACEMENT_3D('',#242,#177,#178);
#147=AXIS2_PLACEMENT_3D('',#245,#179,#180);
#148=AXIS2_PLACEMENT_3D('',#246,#181,#182);
#149=AXIS2_PLACEMENT_3D('',#247,#183,#184);
#150=AXIS2_PLACEMENT_3D('',#250,#185,#186);
#151=AXIS2_PLACEMENT_3D('',#251,#187,#188);
#152=AXIS2_PLACEMENT_3D('',#252,#189,#190);
#153=AXIS2_PLACEMENT_3D('',#254,#192,#193);
#154=DIRECTION('axis',(0.,0.,1.));
#155=DIRECTION('refdir',(1.,0.,0.));
#156=DIRECTION('center_axis',(0.,0.,1.));
#157=DIRECTION('ref_axis',(1.,0.,0.));
#158=DIRECTION('center_axis',(0.,0.,1.));
#159=DIRECTION('ref_axis',(1.,0.,0.));
#160=DIRECTION('center_axis',(0.,0.,1.));
#161=DIRECTION('ref_axis',(1.,0.,0.));
#162=DIRECTION('center_axis',(0.,0.,1.));
#163=DIRECTION('ref_axis',(1.,0.,0.));
#164=DIRECTION('center_axis',(0.,0.,1.));
#165=DIRECTION('ref_axis',(1.,0.,0.));
#166=DIRECTION('center_axis',(0.,0.,1.));
#167=DIRECTION('ref_axis',(1.,0.,0.));
#168=DIRECTION('center_axis',(0.,0.,-1.));
#169=DIRECTION('ref_axis',(-1.,0.,0.));
#170=DIRECTION('',(-0.707106781186547,-8.65956056235493E-17,0.707106781186548));
#171=DIRECTION('center_axis',(0.,0.,-1.));
#172=DIRECTION('ref_axis',(-1.,0.,0.));
#173=DIRECTION('center_axis',(0.,0.,-1.));
#174=DIRECTION('ref_axis',(-1.,0.,0.));
#175=DIRECTION('center_axis',(1.22464679914735E-16,-1.,1.24227876753136E-16));
#176=DIRECTION('ref_axis',(-1.,-1.22464679914735E-16,-3.13994844812901E-16));
#177=DIRECTION('center_axis',(0.,0.,-1.));
#178=DIRECTION('ref_axis',(-1.,0.,0.));
#179=DIRECTION('center_axis',(0.,0.,1.));
#180=DIRECTION('ref_axis',(0.,-1.,0.));
#181=DIRECTION('center_axis',(0.,0.,1.));
#182=DIRECTION('ref_axis',(0.,-1.,0.));
#183=DIRECTION('center_axis',(0.,0.,-1.));
#184=DIRECTION('ref_axis',(-1.,0.,0.));
#185=DIRECTION('center_axis',(0.,0.,1.));
#186=DIRECTION('ref_axis',(1.,0.,0.));
#187=DIRECTION('center_axis',(0.,0.,1.));
#188=DIRECTION('ref_axis',(1.,0.,0.));
#189=DIRECTION('center_axis',(0.,0.,1.));
#190=DIRECTION('ref_axis',(0.,-1.,0.));
#191=DIRECTION('',(0.,0.,1.));
#192=DIRECTION('center_axis',(0.,0.,-1.));
#193=DIRECTION('ref_axis',(1.,0.,0.));
#194=DIRECTION('',(0.,0.,1.));
#195=CARTESIAN_POINT('',(0.,0.,0.));
#196=CARTESIAN_POINT('Origin',(37.5,0.,-9.79896906934786E-15));
#197=CARTESIAN_POINT('',(37.5,0.,0.));
#198=CARTESIAN_POINT('',(-37.5,4.59242549680258E-15,0.));
#199=CARTESIAN_POINT('Origin',(-6.91178884959509E-16,0.,0.));
#200=CARTESIAN_POINT('Origin',(-6.91178884959509E-16,0.,0.));
#201=CARTESIAN_POINT('',(35.5513539214859,0.,-1.90819582357449E-14));
#202=CARTESIAN_POINT('',(-35.5513539214859,-1.21320811735393E-14,-1.90819582357449E-14));
#203=CARTESIAN_POINT('Origin',(-6.91178884959509E-16,0.,-1.90819582357449E-14));
#204=CARTESIAN_POINT('Origin',(-6.91178884959509E-16,0.,-1.90819582357449E-14));
#205=CARTESIAN_POINT('Origin',(0.,0.,2.));
#206=CARTESIAN_POINT('',(-5.053,0.,1.));
#207=CARTESIAN_POINT('',(-6.18814027609158E-16,5.053,1.));
#208=CARTESIAN_POINT('Origin',(0.,0.,1.));
#209=CARTESIAN_POINT('',(-6.053,0.,2.));
#210=CARTESIAN_POINT('',(-6.053,-7.41278707523893E-16,2.));
#211=CARTESIAN_POINT('Origin',(0.,0.,2.));
#212=CARTESIAN_POINT('Origin',(0.,0.,1.));
#213=CARTESIAN_POINT('Ctrl Pts',(-4.30223286392338E-14,-1.85861212725319E-14,
-87.));
#214=CARTESIAN_POINT('Ctrl Pts',(-4.30223286392338E-14,-3.12155013951475E-14,
-87.));
#215=CARTESIAN_POINT('Ctrl Pts',(-3.03929485166182E-14,-3.12155013951475E-14,
-87.));
#216=CARTESIAN_POINT('Ctrl Pts',(-1.77635683940025E-14,-3.12155013951475E-14,
-87.));
#217=CARTESIAN_POINT('Ctrl Pts',(-1.77635683940025E-14,-1.85861212725319E-14,
-87.));
#218=CARTESIAN_POINT('Ctrl Pts',(-1.77635683940025E-14,-5.95674114991621E-15,
-87.));
#219=CARTESIAN_POINT('Ctrl Pts',(-3.03929485166182E-14,-5.95674114991621E-15,
-87.));
#220=CARTESIAN_POINT('Ctrl Pts',(-4.30223286392338E-14,-5.95674114991621E-15,
-87.));
#221=CARTESIAN_POINT('Ctrl Pts',(-4.30223286392338E-14,-1.85861212725319E-14,
-87.));
#222=CARTESIAN_POINT('Ctrl Pts',(-35.5292279130248,-1.40834501419161E-14,
-50.7547445203184));
#223=CARTESIAN_POINT('Ctrl Pts',(-35.5292279130248,-35.5292279130248,-50.7547445203184));
#224=CARTESIAN_POINT('Ctrl Pts',(-4.17754683231741E-14,-35.5292279130248,
-50.7547445203184));
#225=CARTESIAN_POINT('Ctrl Pts',(35.5292279130247,-35.5292279130248,-50.7547445203184));
#226=CARTESIAN_POINT('Ctrl Pts',(35.5292279130247,-1.40834501419161E-14,
-50.7547445203184));
#227=CARTESIAN_POINT('Ctrl Pts',(35.5292279130247,35.5292279130247,-50.7547445203184));
#228=CARTESIAN_POINT('Ctrl Pts',(-4.17754683231741E-14,35.5292279130247,
-50.7547445203184));
#229=CARTESIAN_POINT('Ctrl Pts',(-35.5292279130248,35.5292279130247,-50.7547445203184));
#230=CARTESIAN_POINT('Ctrl Pts',(-35.5292279130248,-1.40834501419161E-14,
-50.7547445203184));
#231=CARTESIAN_POINT('Ctrl Pts',(-35.551353921486,-7.77829599500905E-15,
-1.79630615937398E-14));
#232=CARTESIAN_POINT('Ctrl Pts',(-35.551353921486,-35.5513539214859,-1.35465923803744E-14));
#233=CARTESIAN_POINT('Ctrl Pts',(-5.77145719971176E-14,-35.5513539214859,
-2.38364681246361E-15));
#234=CARTESIAN_POINT('Ctrl Pts',(35.5513539214859,-35.5513539214859,8.77929875544714E-15));
#235=CARTESIAN_POINT('Ctrl Pts',(35.5513539214859,-7.77829599500905E-15,
4.36282954208167E-15));
#236=CARTESIAN_POINT('Ctrl Pts',(35.5513539214859,35.5513539214859,-5.36396712838047E-17));
#237=CARTESIAN_POINT('Ctrl Pts',(-5.77145719971176E-14,35.5513539214859,
-1.12165852391946E-14));
#238=CARTESIAN_POINT('Ctrl Pts',(-35.551353921486,35.5513539214859,-2.23795308071053E-14));
#239=CARTESIAN_POINT('Ctrl Pts',(-35.551353921486,-7.77829599500905E-15,
-1.79630615937398E-14));
#240=CARTESIAN_POINT('',(1.08993565124114E-14,0.,-87.));
#241=CARTESIAN_POINT('Origin',(88.8086342616154,3.10435979613744E-15,0.0542134568260995));
#242=CARTESIAN_POINT('Origin',(0.,0.,-28.));
#243=CARTESIAN_POINT('',(0.,-5.053,-28.));
#244=CARTESIAN_POINT('',(-6.18814027609158E-16,5.053,-28.));
#245=CARTESIAN_POINT('Origin',(0.,0.,-28.));
#246=CARTESIAN_POINT('Origin',(0.,0.,-28.));
#247=CARTESIAN_POINT('Origin',(37.5,0.,2.));
#248=CARTESIAN_POINT('',(37.5,0.,2.));
#249=CARTESIAN_POINT('',(-37.5,4.59242549680258E-15,2.));
#250=CARTESIAN_POINT('Origin',(-6.91178884959509E-16,0.,2.));
#251=CARTESIAN_POINT('Origin',(-6.91178884959509E-16,0.,2.));
#252=CARTESIAN_POINT('Origin',(0.,0.,2.));
#253=CARTESIAN_POINT('',(-6.18814027609158E-16,5.053,2.));
#254=CARTESIAN_POINT('Origin',(-6.91178884959509E-16,0.,4.43302325581395));
#255=CARTESIAN_POINT('',(-37.5,4.59242549680258E-15,4.43302325581395));
#256=UNCERTAINTY_MEASURE_WITH_UNIT(LENGTH_MEASURE(0.01),#260,
'DISTANCE_ACCURACY_VALUE',
'Maximum model space distance between geometric entities at asserted c
onnectivities');
#257=UNCERTAINTY_MEASURE_WITH_UNIT(LENGTH_MEASURE(0.01),#260,
'DISTANCE_ACCURACY_VALUE',
'Maximum model space distance between geometric entities at asserted c
onnectivities');
#258=(
GEOMETRIC_REPRESENTATION_CONTEXT(3)
GLOBAL_UNCERTAINTY_ASSIGNED_CONTEXT((#256))
GLOBAL_UNIT_ASSIGNED_CONTEXT((#260,#263,#262))
REPRESENTATION_CONTEXT('','3D')
);
#259=(
GEOMETRIC_REPRESENTATION_CONTEXT(3)
GLOBAL_UNCERTAINTY_ASSIGNED_CONTEXT((#257))
GLOBAL_UNIT_ASSIGNED_CONTEXT((#260,#263,#262))
REPRESENTATION_CONTEXT('','3D')
);
#260=(
LENGTH_UNIT()
NAMED_UNIT(*)
SI_UNIT(.MILLI.,.METRE.)
);
#261=(
LENGTH_UNIT()
NAMED_UNIT(*)
SI_UNIT(.CENTI.,.METRE.)
);
#262=(
NAMED_UNIT(*)
SI_UNIT($,.STERADIAN.)
SOLID_ANGLE_UNIT()
);
#263=(
NAMED_UNIT(*)
PLANE_ANGLE_UNIT()
SI_UNIT($,.RADIAN.)
);
#264=SHAPE_DEFINITION_REPRESENTATION(#265,#266);
#265=PRODUCT_DEFINITION_SHAPE('',$,#268);
#266=SHAPE_REPRESENTATION('',(#135),#258);
#267=PRODUCT_DEFINITION_CONTEXT('part definition',#272,'design');
#268=PRODUCT_DEFINITION('11400',
'11400_KriTec_Parabel-Puffer_\X\D875x89_M12_mit_Innengewinde',#269,#267);
#269=PRODUCT_DEFINITION_FORMATION('',$,#274);
#270=PRODUCT_RELATED_PRODUCT_CATEGORY(
'11400_KriTec_Parabel-Puffer_\X\D875x89_M12_mit_Innengewinde',
'11400_KriTec_Parabel-Puffer_\X\D875x89_M12_mit_Innengewinde',(#274));
#271=APPLICATION_PROTOCOL_DEFINITION('international standard',
'automotive_design',2009,#272);
#272=APPLICATION_CONTEXT(
'Core Data for Automotive Mechanical Design Process');
#273=PRODUCT_CONTEXT('part definition',#272,'mechanical');
#274=PRODUCT('11400',
'11400_KriTec_Parabel-Puffer_\X\D875x89_M12_mit_Innengewinde',
'KriTec Parabel-Puffer \X\D875x89 M12 mit Innengewinde',(#273));
#275=PRESENTATION_STYLE_ASSIGNMENT((#276));
#276=SURFACE_STYLE_USAGE(.BOTH.,#277);
#277=SURFACE_SIDE_STYLE('',(#278));
#278=SURFACE_STYLE_FILL_AREA(#279);
#279=FILL_AREA_STYLE('',(#280));
#280=FILL_AREA_STYLE_COLOUR('',#281);
#281=COLOUR_RGB('',0.250980392156863,0.250980392156863,0.250980392156863);
ENDSEC;
END-ISO-10303-21;
