ISO-10303-21;
HEADER;
/* Generated by software containing ST-Developer
 * from STEP Tools, Inc. (www.steptools.com) 
 */

FILE_DESCRIPTION(
/* description */ (
'KriTec Parabel-Puffer \X\D850x58 mit M10 Aussengewinde'),
/* implementation_level */ '2;1');

FILE_NAME(
/* name */ 
'C:\\Arbeitsordner\\Designs\\Kuhlemann\\neuteile\\11392\\11392_Parabel
-Puffer_50x58_M10_mit_Aussengewinde.stp',
/* time_stamp */ '2021-10-27T08:53:47+02:00',
/* author */ ('Nell'),
/* organization */ (''),
/* preprocessor_version */ 'ST-DEVELOPER v17',
/* originating_system */ 'Autodesk Inventor 2018',
/* authorisation */ '');

FILE_SCHEMA (('AUTOMOTIVE_DESIGN { 1 0 10303 214 3 1 1 }'));
ENDSEC;

DATA;
#10=MECHANICAL_DESIGN_GEOMETRIC_PRESENTATION_REPRESENTATION('',(#17,#18,
#19,#20),#248);
#11=SHAPE_REPRESENTATION_RELATIONSHIP('SRR','None',#255,#12);
#12=ADVANCED_BREP_SHAPE_REPRESENTATION('',(#13),#247);
#13=MANIFOLD_SOLID_BREP('Volumenk\X\F6rper1',#115);
#14=FACE_BOUND('',#38,.T.);
#15=FACE_BOUND('',#41,.T.);
#16=(
BOUNDED_SURFACE()
B_SPLINE_SURFACE(2,2,((#200,#201,#202,#203,#204,#205,#206,#207,#208),(#209,
#210,#211,#212,#213,#214,#215,#216,#217),(#218,#219,#220,#221,#222,#223,
#224,#225,#226)),.UNSPECIFIED.,.F.,.T.,.F.)
B_SPLINE_SURFACE_WITH_KNOTS((3,3),(3,2,2,2,3),(6.57310456215458E-11,0.794648726271264),
(-3.14159265358979,-1.5707963267949,0.,1.5707963267949,3.14159265358979),
 .UNSPECIFIED.)
GEOMETRIC_REPRESENTATION_ITEM()
RATIONAL_B_SPLINE_SURFACE(((1.,0.707106781186548,1.,0.707106781186548,1.,
0.707106781186548,1.,0.707106781186548,1.),(0.922099637893842,0.652022906884396,
0.922099637893842,0.652022906884396,0.922099637893842,0.652022906884396,
0.922099637893842,0.652022906884396,0.922099637893842),(1.,0.707106781186548,
1.,0.707106781186548,1.,0.707106781186548,1.,0.707106781186548,1.)))
REPRESENTATION_ITEM('')
SURFACE()
);
#17=STYLED_ITEM('',(#265),#111);
#18=STYLED_ITEM('',(#265),#113);
#19=STYLED_ITEM('',(#265),#114);
#20=STYLED_ITEM('',(#264),#13);
#21=PLANE('',#140);
#22=PLANE('',#144);
#23=PLANE('',#150);
#24=CYLINDRICAL_SURFACE('',#138,5.);
#25=CYLINDRICAL_SURFACE('',#147,25.0000000002021);
#26=FACE_OUTER_BOUND('',#33,.T.);
#27=FACE_OUTER_BOUND('',#34,.T.);
#28=FACE_OUTER_BOUND('',#35,.T.);
#29=FACE_OUTER_BOUND('',#36,.T.);
#30=FACE_OUTER_BOUND('',#37,.T.);
#31=FACE_OUTER_BOUND('',#39,.T.);
#32=FACE_OUTER_BOUND('',#40,.T.);
#33=EDGE_LOOP('',(#81,#82,#83,#84));
#34=EDGE_LOOP('',(#85,#86,#87,#88));
#35=EDGE_LOOP('',(#89));
#36=EDGE_LOOP('',(#90,#91,#92,#93));
#37=EDGE_LOOP('',(#94,#95));
#38=EDGE_LOOP('',(#96));
#39=EDGE_LOOP('',(#97,#98,#99,#100,#101,#102));
#40=EDGE_LOOP('',(#103,#104));
#41=EDGE_LOOP('',(#105,#106));
#42=LINE('',#193,#45);
#43=LINE('',#197,#46);
#44=LINE('',#243,#47);
#45=VECTOR('',#157,4.5);
#46=VECTOR('',#162,5.);
#47=VECTOR('',#185,25.0000000002021);
#48=CIRCLE('',#136,4.);
#49=CIRCLE('',#137,5.);
#50=CIRCLE('',#139,5.);
#51=CIRCLE('',#141,78.4734042676503);
#52=CIRCLE('',#142,23.4999999995555);
#53=CIRCLE('',#143,23.4999999995555);
#54=CIRCLE('',#145,25.0000000002021);
#55=CIRCLE('',#146,25.0000000002021);
#56=CIRCLE('',#148,25.0000000002021);
#57=CIRCLE('',#149,25.0000000002021);
#58=VERTEX_POINT('',#190);
#59=VERTEX_POINT('',#192);
#60=VERTEX_POINT('',#196);
#61=VERTEX_POINT('',#227);
#62=VERTEX_POINT('',#228);
#63=VERTEX_POINT('',#230);
#64=VERTEX_POINT('',#234);
#65=VERTEX_POINT('',#235);
#66=VERTEX_POINT('',#239);
#67=VERTEX_POINT('',#240);
#68=EDGE_CURVE('',#58,#58,#48,.T.);
#69=EDGE_CURVE('',#58,#59,#42,.T.);
#70=EDGE_CURVE('',#59,#59,#49,.T.);
#71=EDGE_CURVE('',#59,#60,#43,.T.);
#72=EDGE_CURVE('',#60,#60,#50,.T.);
#73=EDGE_CURVE('',#61,#62,#51,.T.);
#74=EDGE_CURVE('',#63,#62,#52,.T.);
#75=EDGE_CURVE('',#62,#63,#53,.T.);
#76=EDGE_CURVE('',#64,#65,#54,.T.);
#77=EDGE_CURVE('',#65,#64,#55,.T.);
#78=EDGE_CURVE('',#66,#67,#56,.T.);
#79=EDGE_CURVE('',#67,#66,#57,.T.);
#80=EDGE_CURVE('',#67,#65,#44,.T.);
#81=ORIENTED_EDGE('',*,*,#68,.T.);
#82=ORIENTED_EDGE('',*,*,#69,.T.);
#83=ORIENTED_EDGE('',*,*,#70,.T.);
#84=ORIENTED_EDGE('',*,*,#69,.F.);
#85=ORIENTED_EDGE('',*,*,#70,.F.);
#86=ORIENTED_EDGE('',*,*,#71,.T.);
#87=ORIENTED_EDGE('',*,*,#72,.F.);
#88=ORIENTED_EDGE('',*,*,#71,.F.);
#89=ORIENTED_EDGE('',*,*,#68,.F.);
#90=ORIENTED_EDGE('',*,*,#73,.T.);
#91=ORIENTED_EDGE('',*,*,#74,.F.);
#92=ORIENTED_EDGE('',*,*,#75,.F.);
#93=ORIENTED_EDGE('',*,*,#73,.F.);
#94=ORIENTED_EDGE('',*,*,#76,.F.);
#95=ORIENTED_EDGE('',*,*,#77,.F.);
#96=ORIENTED_EDGE('',*,*,#72,.T.);
#97=ORIENTED_EDGE('',*,*,#78,.F.);
#98=ORIENTED_EDGE('',*,*,#79,.F.);
#99=ORIENTED_EDGE('',*,*,#80,.T.);
#100=ORIENTED_EDGE('',*,*,#77,.T.);
#101=ORIENTED_EDGE('',*,*,#76,.T.);
#102=ORIENTED_EDGE('',*,*,#80,.F.);
#103=ORIENTED_EDGE('',*,*,#78,.T.);
#104=ORIENTED_EDGE('',*,*,#79,.T.);
#105=ORIENTED_EDGE('',*,*,#74,.T.);
#106=ORIENTED_EDGE('',*,*,#75,.T.);
#107=CONICAL_SURFACE('',#135,4.5,0.785398163397448);
#108=ADVANCED_FACE('',(#26),#107,.T.);
#109=ADVANCED_FACE('',(#27),#24,.T.);
#110=ADVANCED_FACE('',(#28),#21,.F.);
#111=ADVANCED_FACE('',(#29),#16,.F.);
#112=ADVANCED_FACE('',(#30,#14),#22,.T.);
#113=ADVANCED_FACE('',(#31),#25,.T.);
#114=ADVANCED_FACE('',(#32,#15),#23,.T.);
#115=CLOSED_SHELL('',(#108,#109,#110,#111,#112,#113,#114));
#116=DERIVED_UNIT_ELEMENT(#118,1.);
#117=DERIVED_UNIT_ELEMENT(#250,3.);
#118=(
MASS_UNIT()
NAMED_UNIT(*)
SI_UNIT($,.GRAM.)
);
#119=DERIVED_UNIT((#116,#117));
#120=MEASURE_REPRESENTATION_ITEM('density measure',
POSITIVE_RATIO_MEASURE(1.),#119);
#121=PROPERTY_DEFINITION_REPRESENTATION(#126,#123);
#122=PROPERTY_DEFINITION_REPRESENTATION(#127,#124);
#123=REPRESENTATION('material name',(#125),#247);
#124=REPRESENTATION('density',(#120),#247);
#125=DESCRIPTIVE_REPRESENTATION_ITEM('Generisch','Generisch');
#126=PROPERTY_DEFINITION('material property','material name',#257);
#127=PROPERTY_DEFINITION('material property','density of part',#257);
#128=DATE_TIME_ROLE('creation_date');
#129=APPLIED_DATE_AND_TIME_ASSIGNMENT(#130,#128,(#257));
#130=DATE_AND_TIME(#131,#132);
#131=CALENDAR_DATE(2021,26,10);
#132=LOCAL_TIME(14,34,33.,#133);
#133=COORDINATED_UNIVERSAL_TIME_OFFSET(0,0,.BEHIND.);
#134=AXIS2_PLACEMENT_3D('placement',#188,#151,#152);
#135=AXIS2_PLACEMENT_3D('',#189,#153,#154);
#136=AXIS2_PLACEMENT_3D('',#191,#155,#156);
#137=AXIS2_PLACEMENT_3D('',#194,#158,#159);
#138=AXIS2_PLACEMENT_3D('',#195,#160,#161);
#139=AXIS2_PLACEMENT_3D('',#198,#163,#164);
#140=AXIS2_PLACEMENT_3D('',#199,#165,#166);
#141=AXIS2_PLACEMENT_3D('',#229,#167,#168);
#142=AXIS2_PLACEMENT_3D('',#231,#169,#170);
#143=AXIS2_PLACEMENT_3D('',#232,#171,#172);
#144=AXIS2_PLACEMENT_3D('',#233,#173,#174);
#145=AXIS2_PLACEMENT_3D('',#236,#175,#176);
#146=AXIS2_PLACEMENT_3D('',#237,#177,#178);
#147=AXIS2_PLACEMENT_3D('',#238,#179,#180);
#148=AXIS2_PLACEMENT_3D('',#241,#181,#182);
#149=AXIS2_PLACEMENT_3D('',#242,#183,#184);
#150=AXIS2_PLACEMENT_3D('',#244,#186,#187);
#151=DIRECTION('axis',(0.,0.,1.));
#152=DIRECTION('refdir',(1.,0.,0.));
#153=DIRECTION('center_axis',(0.,1.,0.));
#154=DIRECTION('ref_axis',(-1.,0.,0.));
#155=DIRECTION('center_axis',(0.,1.,0.));
#156=DIRECTION('ref_axis',(-1.,0.,0.));
#157=DIRECTION('',(0.707106781186547,0.707106781186548,8.65956056235493E-17));
#158=DIRECTION('center_axis',(0.,-1.,0.));
#159=DIRECTION('ref_axis',(-1.,0.,0.));
#160=DIRECTION('center_axis',(0.,-1.,0.));
#161=DIRECTION('ref_axis',(-1.,0.,0.));
#162=DIRECTION('',(0.,1.,0.));
#163=DIRECTION('center_axis',(0.,1.,0.));
#164=DIRECTION('ref_axis',(-1.,0.,0.));
#165=DIRECTION('center_axis',(0.,1.,0.));
#166=DIRECTION('ref_axis',(0.,0.,1.));
#167=DIRECTION('center_axis',(-1.,0.,1.22464679914735E-16));
#168=DIRECTION('ref_axis',(-1.22464679914735E-16,0.,-1.));
#169=DIRECTION('center_axis',(0.,-1.,0.));
#170=DIRECTION('ref_axis',(0.,0.,1.));
#171=DIRECTION('center_axis',(0.,-1.,0.));
#172=DIRECTION('ref_axis',(0.,0.,1.));
#173=DIRECTION('center_axis',(0.,-1.,0.));
#174=DIRECTION('ref_axis',(0.,0.,-1.));
#175=DIRECTION('center_axis',(0.,1.,0.));
#176=DIRECTION('ref_axis',(1.,0.,0.));
#177=DIRECTION('center_axis',(0.,1.,0.));
#178=DIRECTION('ref_axis',(1.,0.,0.));
#179=DIRECTION('center_axis',(0.,1.,0.));
#180=DIRECTION('ref_axis',(-1.,0.,0.));
#181=DIRECTION('center_axis',(0.,1.,0.));
#182=DIRECTION('ref_axis',(1.,0.,0.));
#183=DIRECTION('center_axis',(0.,1.,0.));
#184=DIRECTION('ref_axis',(1.,0.,0.));
#185=DIRECTION('',(0.,-1.,0.));
#186=DIRECTION('center_axis',(0.,1.,0.));
#187=DIRECTION('ref_axis',(0.,0.,1.));
#188=CARTESIAN_POINT('',(0.,0.,0.));
#189=CARTESIAN_POINT('Origin',(0.,-27.5,0.));
#190=CARTESIAN_POINT('',(4.,-28.,-4.89858719658941E-16));
#191=CARTESIAN_POINT('Origin',(0.,-28.,0.));
#192=CARTESIAN_POINT('',(5.,-27.,6.12323399573677E-16));
#193=CARTESIAN_POINT('',(4.5,-27.5,5.51091059616309E-16));
#194=CARTESIAN_POINT('Origin',(0.,-27.,0.));
#195=CARTESIAN_POINT('Origin',(0.,2.56481579902091E-16,0.));
#196=CARTESIAN_POINT('',(5.,2.56481579902091E-16,6.12323399573677E-16));
#197=CARTESIAN_POINT('',(5.,2.56481579902091E-16,6.12323399573677E-16));
#198=CARTESIAN_POINT('Origin',(0.,2.56481579902091E-16,0.));
#199=CARTESIAN_POINT('Origin',(-2.36064120735332E-16,-28.,0.));
#200=CARTESIAN_POINT('Ctrl Pts',(0.,2.00000000001617,-23.4999999995555));
#201=CARTESIAN_POINT('Ctrl Pts',(-23.4999999995555,2.00000000001617,-23.4999999995555));
#202=CARTESIAN_POINT('Ctrl Pts',(-23.4999999995555,2.00000000001617,0.));
#203=CARTESIAN_POINT('Ctrl Pts',(-23.4999999995555,2.00000000001617,23.4999999995555));
#204=CARTESIAN_POINT('Ctrl Pts',(0.,2.00000000001617,23.4999999995555));
#205=CARTESIAN_POINT('Ctrl Pts',(23.4999999995555,2.00000000001617,23.4999999995555));
#206=CARTESIAN_POINT('Ctrl Pts',(23.4999999995555,2.00000000001617,0.));
#207=CARTESIAN_POINT('Ctrl Pts',(23.4999999995555,2.00000000001617,-23.4999999995555));
#208=CARTESIAN_POINT('Ctrl Pts',(0.,2.00000000001617,-23.4999999995555));
#209=CARTESIAN_POINT('Ctrl Pts',(0.,34.9308035701769,-23.499999997391));
#210=CARTESIAN_POINT('Ctrl Pts',(-23.499999997391,34.9308035701769,-23.499999997391));
#211=CARTESIAN_POINT('Ctrl Pts',(-23.499999997391,34.9308035701769,0.));
#212=CARTESIAN_POINT('Ctrl Pts',(-23.499999997391,34.9308035701769,23.499999997391));
#213=CARTESIAN_POINT('Ctrl Pts',(0.,34.9308035701769,23.499999997391));
#214=CARTESIAN_POINT('Ctrl Pts',(23.499999997391,34.9308035701769,23.499999997391));
#215=CARTESIAN_POINT('Ctrl Pts',(23.499999997391,34.9308035701769,0.));
#216=CARTESIAN_POINT('Ctrl Pts',(23.499999997391,34.9308035701769,-23.499999997391));
#217=CARTESIAN_POINT('Ctrl Pts',(0.,34.9308035701769,-23.499999997391));
#218=CARTESIAN_POINT('Ctrl Pts',(0.,57.9999999995964,8.88178419700125E-15));
#219=CARTESIAN_POINT('Ctrl Pts',(8.88178419700125E-15,57.9999999995964,
8.88178419700125E-15));
#220=CARTESIAN_POINT('Ctrl Pts',(8.88178419700125E-15,57.9999999995964,
0.));
#221=CARTESIAN_POINT('Ctrl Pts',(8.88178419700125E-15,57.9999999995964,
-8.88178419700125E-15));
#222=CARTESIAN_POINT('Ctrl Pts',(0.,57.9999999995964,-8.88178419700125E-15));
#223=CARTESIAN_POINT('Ctrl Pts',(-8.88178419700125E-15,57.9999999995964,
-8.88178419700125E-15));
#224=CARTESIAN_POINT('Ctrl Pts',(-8.88178419700125E-15,57.9999999995964,
0.));
#225=CARTESIAN_POINT('Ctrl Pts',(-8.88178419700125E-15,57.9999999995964,
8.88178419700125E-15));
#226=CARTESIAN_POINT('Ctrl Pts',(0.,57.9999999995964,8.88178419700125E-15));
#227=CARTESIAN_POINT('',(0.,58.0000000004855,0.));
#228=CARTESIAN_POINT('',(-2.87791997794185E-15,2.00000000001617,-23.4999999995555));
#229=CARTESIAN_POINT('Origin',(6.73230035751557E-15,1.99999999485803,54.9734042680948));
#230=CARTESIAN_POINT('',(-23.50000000019,2.00000000001617,0.));
#231=CARTESIAN_POINT('Origin',(0.,2.00000000001617,0.));
#232=CARTESIAN_POINT('Origin',(0.,2.00000000001617,0.));
#233=CARTESIAN_POINT('Origin',(-25.0000000002021,2.56481579902091E-16,0.));
#234=CARTESIAN_POINT('',(-25.0000000002021,2.56481579902091E-16,0.));
#235=CARTESIAN_POINT('',(25.0000000002021,2.77555756156289E-16,-3.06161699789314E-15));
#236=CARTESIAN_POINT('Origin',(0.,2.77555756156289E-16,0.));
#237=CARTESIAN_POINT('Origin',(0.,2.77555756156289E-16,0.));
#238=CARTESIAN_POINT('Origin',(0.,1.00000000000809,0.));
#239=CARTESIAN_POINT('',(-25.0000000002021,2.00000000001617,0.));
#240=CARTESIAN_POINT('',(25.0000000002021,2.00000000001617,-3.06161699789314E-15));
#241=CARTESIAN_POINT('Origin',(0.,2.00000000001617,0.));
#242=CARTESIAN_POINT('Origin',(0.,2.00000000001617,0.));
#243=CARTESIAN_POINT('',(25.0000000002021,1.00000000000809,-3.06161699789314E-15));
#244=CARTESIAN_POINT('Origin',(-23.50000000019,2.00000000001617,0.));
#245=UNCERTAINTY_MEASURE_WITH_UNIT(LENGTH_MEASURE(0.01),#249,
'DISTANCE_ACCURACY_VALUE',
'Maximum model space distance between geometric entities at asserted c
onnectivities');
#246=UNCERTAINTY_MEASURE_WITH_UNIT(LENGTH_MEASURE(0.01),#249,
'DISTANCE_ACCURACY_VALUE',
'Maximum model space distance between geometric entities at asserted c
onnectivities');
#247=(
GEOMETRIC_REPRESENTATION_CONTEXT(3)
GLOBAL_UNCERTAINTY_ASSIGNED_CONTEXT((#245))
GLOBAL_UNIT_ASSIGNED_CONTEXT((#249,#252,#251))
REPRESENTATION_CONTEXT('','3D')
);
#248=(
GEOMETRIC_REPRESENTATION_CONTEXT(3)
GLOBAL_UNCERTAINTY_ASSIGNED_CONTEXT((#246))
GLOBAL_UNIT_ASSIGNED_CONTEXT((#249,#252,#251))
REPRESENTATION_CONTEXT('','3D')
);
#249=(
LENGTH_UNIT()
NAMED_UNIT(*)
SI_UNIT(.MILLI.,.METRE.)
);
#250=(
LENGTH_UNIT()
NAMED_UNIT(*)
SI_UNIT(.CENTI.,.METRE.)
);
#251=(
NAMED_UNIT(*)
SI_UNIT($,.STERADIAN.)
SOLID_ANGLE_UNIT()
);
#252=(
NAMED_UNIT(*)
PLANE_ANGLE_UNIT()
SI_UNIT($,.RADIAN.)
);
#253=SHAPE_DEFINITION_REPRESENTATION(#254,#255);
#254=PRODUCT_DEFINITION_SHAPE('',$,#257);
#255=SHAPE_REPRESENTATION('',(#134),#247);
#256=PRODUCT_DEFINITION_CONTEXT('part definition',#261,'design');
#257=PRODUCT_DEFINITION('11392',
'11392_Parabel-Puffer_50x58_M10_mit_Aussengewinde',#258,#256);
#258=PRODUCT_DEFINITION_FORMATION('',$,#263);
#259=PRODUCT_RELATED_PRODUCT_CATEGORY(
'11392_Parabel-Puffer_50x58_M10_mit_Aussengewinde',
'11392_Parabel-Puffer_50x58_M10_mit_Aussengewinde',(#263));
#260=APPLICATION_PROTOCOL_DEFINITION('international standard',
'automotive_design',2009,#261);
#261=APPLICATION_CONTEXT(
'Core Data for Automotive Mechanical Design Process');
#262=PRODUCT_CONTEXT('part definition',#261,'mechanical');
#263=PRODUCT('11392','11392_Parabel-Puffer_50x58_M10_mit_Aussengewinde',
'KriTec Parabel-Puffer \X\D850x58 mit M10 Aussengewinde',(#262));
#264=PRESENTATION_STYLE_ASSIGNMENT((#266));
#265=PRESENTATION_STYLE_ASSIGNMENT((#267));
#266=SURFACE_STYLE_USAGE(.BOTH.,#268);
#267=SURFACE_STYLE_USAGE(.BOTH.,#269);
#268=SURFACE_SIDE_STYLE('',(#270));
#269=SURFACE_SIDE_STYLE('',(#271));
#270=SURFACE_STYLE_FILL_AREA(#272);
#271=SURFACE_STYLE_FILL_AREA(#273);
#272=FILL_AREA_STYLE('',(#274));
#273=FILL_AREA_STYLE('',(#275));
#274=FILL_AREA_STYLE_COLOUR('',#276);
#275=FILL_AREA_STYLE_COLOUR('',#277);
#276=COLOUR_RGB('',0.749019607843137,0.749019607843137,0.749019607843137);
#277=COLOUR_RGB('',0.250980392156863,0.250980392156863,0.250980392156863);
ENDSEC;
END-ISO-10303-21;
