ISO-10303-21;
HEADER;
/* Generated by software containing ST-Developer
 * from STEP Tools, Inc. (www.steptools.com) 
 */

FILE_DESCRIPTION(
/* description */ (''),
/* implementation_level */ '2;1');

FILE_NAME(
/* name */ 
'S:\\Bilder_neu\\11378_KriTec_Gummipuffer_20x15_M6\\Inventordateien\\1
1378_KriTec_Gummipuffer_20x15_M6.stp',
/* time_stamp */ '2017-06-19T15:48:40+02:00',
/* author */ ('kostic'),
/* organization */ (''),
/* preprocessor_version */ 'ST-DEVELOPER v16.1',
/* originating_system */ 'Autodesk Inventor 2016',
/* authorisation */ '');

FILE_SCHEMA (('AUTOMOTIVE_DESIGN { 1 0 10303 214 3 1 1 }'));
ENDSEC;

DATA;
#10=MECHANICAL_DESIGN_GEOMETRIC_PRESENTATION_REPRESENTATION('',(#89,#85,
#86,#87,#88),#173);
#11=SHAPE_REPRESENTATION_RELATIONSHIP('SRR','None',#182,#12);
#12=ADVANCED_BREP_SHAPE_REPRESENTATION('',(#13),#172);
#13=MANIFOLD_SOLID_BREP('Volumenk\X\F6rper1',#98);
#14=PLANE('',#105);
#15=PLANE('',#113);
#16=PLANE('',#114);
#17=CYLINDRICAL_SURFACE('',#103,2.4585);
#18=CYLINDRICAL_SURFACE('',#108,9.9);
#19=CYLINDRICAL_SURFACE('',#110,10.);
#20=FACE_BOUND('',#35,.T.);
#21=FACE_BOUND('',#37,.T.);
#22=FACE_BOUND('',#39,.T.);
#23=FACE_BOUND('',#42,.T.);
#24=FACE_BOUND('',#44,.T.);
#25=FACE_BOUND('',#46,.T.);
#26=FACE_OUTER_BOUND('',#34,.T.);
#27=FACE_OUTER_BOUND('',#36,.T.);
#28=FACE_OUTER_BOUND('',#38,.T.);
#29=FACE_OUTER_BOUND('',#40,.T.);
#30=FACE_OUTER_BOUND('',#41,.T.);
#31=FACE_OUTER_BOUND('',#43,.T.);
#32=FACE_OUTER_BOUND('',#45,.T.);
#33=FACE_OUTER_BOUND('',#47,.T.);
#34=EDGE_LOOP('',(#69));
#35=EDGE_LOOP('',(#70));
#36=EDGE_LOOP('',(#71));
#37=EDGE_LOOP('',(#72));
#38=EDGE_LOOP('',(#73));
#39=EDGE_LOOP('',(#74));
#40=EDGE_LOOP('',(#75));
#41=EDGE_LOOP('',(#76));
#42=EDGE_LOOP('',(#77));
#43=EDGE_LOOP('',(#78));
#44=EDGE_LOOP('',(#79));
#45=EDGE_LOOP('',(#80));
#46=EDGE_LOOP('',(#81));
#47=EDGE_LOOP('',(#82));
#48=CIRCLE('',#101,2.4585);
#49=CIRCLE('',#102,2.9585);
#50=CIRCLE('',#104,2.4585);
#51=CIRCLE('',#106,9.9);
#52=CIRCLE('',#109,9.9);
#53=CIRCLE('',#111,10.);
#54=CIRCLE('',#112,10.);
#55=VERTEX_POINT('',#149);
#56=VERTEX_POINT('',#151);
#57=VERTEX_POINT('',#154);
#58=VERTEX_POINT('',#157);
#59=VERTEX_POINT('',#161);
#60=VERTEX_POINT('',#164);
#61=VERTEX_POINT('',#166);
#62=EDGE_CURVE('',#55,#55,#48,.T.);
#63=EDGE_CURVE('',#56,#56,#49,.T.);
#64=EDGE_CURVE('',#57,#57,#50,.T.);
#65=EDGE_CURVE('',#58,#58,#51,.T.);
#66=EDGE_CURVE('',#59,#59,#52,.T.);
#67=EDGE_CURVE('',#60,#60,#53,.T.);
#68=EDGE_CURVE('',#61,#61,#54,.T.);
#69=ORIENTED_EDGE('',*,*,#62,.T.);
#70=ORIENTED_EDGE('',*,*,#63,.T.);
#71=ORIENTED_EDGE('',*,*,#64,.F.);
#72=ORIENTED_EDGE('',*,*,#62,.F.);
#73=ORIENTED_EDGE('',*,*,#65,.T.);
#74=ORIENTED_EDGE('',*,*,#63,.F.);
#75=ORIENTED_EDGE('',*,*,#64,.T.);
#76=ORIENTED_EDGE('',*,*,#65,.F.);
#77=ORIENTED_EDGE('',*,*,#66,.F.);
#78=ORIENTED_EDGE('',*,*,#67,.T.);
#79=ORIENTED_EDGE('',*,*,#68,.F.);
#80=ORIENTED_EDGE('',*,*,#67,.F.);
#81=ORIENTED_EDGE('',*,*,#66,.T.);
#82=ORIENTED_EDGE('',*,*,#68,.T.);
#83=CONICAL_SURFACE('',#100,2.7085,45.);
#84=CONICAL_SURFACE('',#107,1.22925,59.);
#85=STYLED_ITEM('',(#192),#90);
#86=STYLED_ITEM('',(#192),#91);
#87=STYLED_ITEM('',(#192),#92);
#88=STYLED_ITEM('',(#193),#95);
#89=STYLED_ITEM('',(#191),#13);
#90=ADVANCED_FACE('',(#26,#20),#83,.F.);
#91=ADVANCED_FACE('',(#27,#21),#17,.F.);
#92=ADVANCED_FACE('',(#28,#22),#14,.F.);
#93=ADVANCED_FACE('',(#29),#84,.F.);
#94=ADVANCED_FACE('',(#30,#23),#18,.F.);
#95=ADVANCED_FACE('',(#31,#24),#19,.T.);
#96=ADVANCED_FACE('',(#32,#25),#15,.F.);
#97=ADVANCED_FACE('',(#33),#16,.T.);
#98=CLOSED_SHELL('',(#90,#91,#92,#93,#94,#95,#96,#97));
#99=AXIS2_PLACEMENT_3D('placement',#147,#115,#116);
#100=AXIS2_PLACEMENT_3D('',#148,#117,#118);
#101=AXIS2_PLACEMENT_3D('',#150,#119,#120);
#102=AXIS2_PLACEMENT_3D('',#152,#121,#122);
#103=AXIS2_PLACEMENT_3D('',#153,#123,#124);
#104=AXIS2_PLACEMENT_3D('',#155,#125,#126);
#105=AXIS2_PLACEMENT_3D('',#156,#127,#128);
#106=AXIS2_PLACEMENT_3D('',#158,#129,#130);
#107=AXIS2_PLACEMENT_3D('',#159,#131,#132);
#108=AXIS2_PLACEMENT_3D('',#160,#133,#134);
#109=AXIS2_PLACEMENT_3D('',#162,#135,#136);
#110=AXIS2_PLACEMENT_3D('',#163,#137,#138);
#111=AXIS2_PLACEMENT_3D('',#165,#139,#140);
#112=AXIS2_PLACEMENT_3D('',#167,#141,#142);
#113=AXIS2_PLACEMENT_3D('',#168,#143,#144);
#114=AXIS2_PLACEMENT_3D('',#169,#145,#146);
#115=DIRECTION('axis',(0.,0.,1.));
#116=DIRECTION('refdir',(1.,0.,0.));
#117=DIRECTION('center_axis',(0.,0.,1.));
#118=DIRECTION('ref_axis',(-1.,0.,0.));
#119=DIRECTION('center_axis',(0.,0.,-1.));
#120=DIRECTION('ref_axis',(-1.,0.,0.));
#121=DIRECTION('center_axis',(0.,0.,1.));
#122=DIRECTION('ref_axis',(-1.,0.,0.));
#123=DIRECTION('center_axis',(0.,0.,1.));
#124=DIRECTION('ref_axis',(1.,0.,0.));
#125=DIRECTION('center_axis',(0.,0.,1.));
#126=DIRECTION('ref_axis',(1.,0.,0.));
#127=DIRECTION('center_axis',(0.,0.,-1.));
#128=DIRECTION('ref_axis',(-1.,0.,0.));
#129=DIRECTION('center_axis',(0.,0.,1.));
#130=DIRECTION('ref_axis',(-1.,0.,0.));
#131=DIRECTION('center_axis',(0.,0.,1.));
#132=DIRECTION('ref_axis',(1.,0.,0.));
#133=DIRECTION('center_axis',(0.,0.,-1.));
#134=DIRECTION('ref_axis',(-1.,0.,0.));
#135=DIRECTION('center_axis',(0.,0.,-1.));
#136=DIRECTION('ref_axis',(-1.,0.,0.));
#137=DIRECTION('center_axis',(0.,0.,1.));
#138=DIRECTION('ref_axis',(-1.,0.,0.));
#139=DIRECTION('center_axis',(0.,0.,-1.));
#140=DIRECTION('ref_axis',(-1.,0.,0.));
#141=DIRECTION('center_axis',(0.,0.,-1.));
#142=DIRECTION('ref_axis',(-1.,0.,0.));
#143=DIRECTION('center_axis',(0.,0.,-1.));
#144=DIRECTION('ref_axis',(-1.,0.,0.));
#145=DIRECTION('center_axis',(0.,0.,-1.));
#146=DIRECTION('ref_axis',(-1.,0.,0.));
#147=CARTESIAN_POINT('',(0.,0.,0.));
#148=CARTESIAN_POINT('Origin',(-2.27848097870622,6.13924053122606,14.74));
#149=CARTESIAN_POINT('',(0.180019021293784,6.13924053122606,14.49));
#150=CARTESIAN_POINT('Origin',(-2.27848097870622,6.13924053122606,14.49));
#151=CARTESIAN_POINT('',(0.680019021293784,6.13924053122606,14.99));
#152=CARTESIAN_POINT('Origin',(-2.27848097870622,6.13924053122606,14.99));
#153=CARTESIAN_POINT('Origin',(-2.27848097870622,6.13924053122606,10.99));
#154=CARTESIAN_POINT('',(0.180019021293784,6.13924053122606,6.99));
#155=CARTESIAN_POINT('Origin',(-2.27848097870622,6.13924053122606,6.99));
#156=CARTESIAN_POINT('Origin',(-2.27848097870622,6.13924053122606,14.99));
#157=CARTESIAN_POINT('',(7.62151902129378,6.13924053122606,14.99));
#158=CARTESIAN_POINT('Origin',(-2.27848097870622,6.13924053122606,14.99));
#159=CARTESIAN_POINT('Origin',(-2.27848097870622,6.13924053122606,6.25139208406037));
#160=CARTESIAN_POINT('Origin',(-2.27848097870622,6.13924053122606,15.));
#161=CARTESIAN_POINT('',(7.62151902129378,6.13924053122606,15.));
#162=CARTESIAN_POINT('Origin',(-2.27848097870622,6.13924053122606,15.));
#163=CARTESIAN_POINT('Origin',(-2.27848097870622,6.13924053122606,0.));
#164=CARTESIAN_POINT('',(7.72151902129378,6.13924053122606,15.));
#165=CARTESIAN_POINT('Origin',(-2.27848097870622,6.13924053122606,15.));
#166=CARTESIAN_POINT('',(7.72151902129378,6.13924053122606,0.));
#167=CARTESIAN_POINT('Origin',(-2.27848097870622,6.13924053122606,0.));
#168=CARTESIAN_POINT('Origin',(-2.27848097870622,6.13924053122606,15.));
#169=CARTESIAN_POINT('Origin',(-2.27848097870622,6.13924053122606,0.));
#170=UNCERTAINTY_MEASURE_WITH_UNIT(LENGTH_MEASURE(0.01),#174,
'DISTANCE_ACCURACY_VALUE',
'Maximum model space distance between geometric entities at asserted c
onnectivities');
#171=UNCERTAINTY_MEASURE_WITH_UNIT(LENGTH_MEASURE(1.E-6),#174,
'DISTANCE_ACCURACY_VALUE',
'Maximum model space distance between geometric entities at asserted c
onnectivities');
#172=(
GEOMETRIC_REPRESENTATION_CONTEXT(3)
GLOBAL_UNCERTAINTY_ASSIGNED_CONTEXT((#170))
GLOBAL_UNIT_ASSIGNED_CONTEXT((#174,#177,#175))
REPRESENTATION_CONTEXT('','3D')
);
#173=(
GEOMETRIC_REPRESENTATION_CONTEXT(3)
GLOBAL_UNCERTAINTY_ASSIGNED_CONTEXT((#171))
GLOBAL_UNIT_ASSIGNED_CONTEXT((#174,#177,#175))
REPRESENTATION_CONTEXT('','3D')
);
#174=(
LENGTH_UNIT()
NAMED_UNIT(*)
SI_UNIT(.MILLI.,.METRE.)
);
#175=(
NAMED_UNIT(*)
SI_UNIT($,.STERADIAN.)
SOLID_ANGLE_UNIT()
);
#176=DIMENSIONAL_EXPONENTS(0.,0.,0.,0.,0.,0.,0.);
#177=(
CONVERSION_BASED_UNIT('degree',#179)
NAMED_UNIT(#176)
PLANE_ANGLE_UNIT()
);
#178=(
NAMED_UNIT(*)
PLANE_ANGLE_UNIT()
SI_UNIT($,.RADIAN.)
);
#179=PLANE_ANGLE_MEASURE_WITH_UNIT(PLANE_ANGLE_MEASURE(0.01745329252),#178);
#180=SHAPE_DEFINITION_REPRESENTATION(#181,#182);
#181=PRODUCT_DEFINITION_SHAPE('',$,#184);
#182=SHAPE_REPRESENTATION('',(#99),#172);
#183=PRODUCT_DEFINITION_CONTEXT('part definition',#188,'design');
#184=PRODUCT_DEFINITION('11378_KriTec_Gummipuffer_20x15_M6',
'11378_KriTec_Gummipuffer_20x15_M6',#185,#183);
#185=PRODUCT_DEFINITION_FORMATION('',$,#190);
#186=PRODUCT_RELATED_PRODUCT_CATEGORY(
'11378_KriTec_Gummipuffer_20x15_M6','11378_KriTec_Gummipuffer_20x15_M6',
(#190));
#187=APPLICATION_PROTOCOL_DEFINITION('international standard',
'automotive_design',2009,#188);
#188=APPLICATION_CONTEXT(
'Core Data for Automotive Mechanical Design Process');
#189=PRODUCT_CONTEXT('part definition',#188,'mechanical');
#190=PRODUCT('11378_KriTec_Gummipuffer_20x15_M6',
'11378_KriTec_Gummipuffer_20x15_M6',$,(#189));
#191=PRESENTATION_STYLE_ASSIGNMENT((#194));
#192=PRESENTATION_STYLE_ASSIGNMENT((#195));
#193=PRESENTATION_STYLE_ASSIGNMENT((#196));
#194=SURFACE_STYLE_USAGE(.BOTH.,#197);
#195=SURFACE_STYLE_USAGE(.BOTH.,#198);
#196=SURFACE_STYLE_USAGE(.BOTH.,#199);
#197=SURFACE_SIDE_STYLE('',(#200));
#198=SURFACE_SIDE_STYLE('',(#201));
#199=SURFACE_SIDE_STYLE('',(#202));
#200=SURFACE_STYLE_FILL_AREA(#203);
#201=SURFACE_STYLE_FILL_AREA(#204);
#202=SURFACE_STYLE_FILL_AREA(#205);
#203=FILL_AREA_STYLE('',(#206));
#204=FILL_AREA_STYLE('',(#207));
#205=FILL_AREA_STYLE('',(#208));
#206=FILL_AREA_STYLE_COLOUR('',#209);
#207=FILL_AREA_STYLE_COLOUR('',#210);
#208=FILL_AREA_STYLE_COLOUR('',#211);
#209=COLOUR_RGB('',0.705882352941177,0.705882352941177,0.705882352941177);
#210=COLOUR_RGB('',0.956862745098039,0.956862745098039,0.956862745098039);
#211=COLOUR_RGB('',0.250980392156863,0.250980392156863,0.250980392156863);
ENDSEC;
END-ISO-10303-21;
