ISO-10303-21;
HEADER;
/* Generated by software containing ST-Developer
 * from STEP Tools, Inc. (www.steptools.com) 
 */

FILE_DESCRIPTION(
/* description */ (''),
/* implementation_level */ '2;1');

FILE_NAME(
/* name */ 
'S:\\Bilder_neu\\11377_KriTec_Kugelgriff_40mm_M10\\Inventordateien\\11
377_KriTec_Kugelgriff_40mm_M10.stp',
/* time_stamp */ '2014-09-17T10:59:35+02:00',
/* author */ ('kostic'),
/* organization */ (''),
/* preprocessor_version */ 'ST-DEVELOPER v15.2',
/* originating_system */ 'Autodesk Inventor 2014',
/* authorisation */ '');

FILE_SCHEMA (('AUTOMOTIVE_DESIGN { 1 0 10303 214 3 1 1 }'));
ENDSEC;

DATA;
#10=SHAPE_REPRESENTATION_RELATIONSHIP('SRR','None',#96,#11);
#11=ADVANCED_BREP_SHAPE_REPRESENTATION($,(#50),#87);
#12=PLANE($,#58);
#13=STYLED_ITEM($,(#105),#48);
#14=STYLED_ITEM($,(#104),#50);
#15=SPHERICAL_SURFACE($,#56,20.);
#16=FACE_BOUND($,#25,.T.);
#17=FACE_BOUND($,#26,.T.);
#18=FACE_BOUND($,#27,.T.);
#19=FACE_BOUND($,#28,.T.);
#20=CYLINDRICAL_SURFACE($,#54,4.188);
#21=FACE_OUTER_BOUND($,#23,.T.);
#22=FACE_OUTER_BOUND($,#24,.T.);
#23=EDGE_LOOP($,(#38));
#24=EDGE_LOOP($,(#39));
#25=EDGE_LOOP($,(#40));
#26=EDGE_LOOP($,(#41));
#27=EDGE_LOOP($,(#42));
#28=EDGE_LOOP($,(#43));
#29=CIRCLE($,#53,4.188);
#30=CIRCLE($,#55,4.188);
#31=CIRCLE($,#57,11.);
#32=VERTEX_POINT($,#77);
#33=VERTEX_POINT($,#80);
#34=VERTEX_POINT($,#83);
#35=EDGE_CURVE($,#32,#32,#29,.T.);
#36=EDGE_CURVE($,#33,#33,#30,.T.);
#37=EDGE_CURVE($,#34,#34,#31,.T.);
#38=ORIENTED_EDGE($,*,*,#35,.T.);
#39=ORIENTED_EDGE($,*,*,#36,.F.);
#40=ORIENTED_EDGE($,*,*,#35,.F.);
#41=ORIENTED_EDGE($,*,*,#37,.F.);
#42=ORIENTED_EDGE($,*,*,#36,.T.);
#43=ORIENTED_EDGE($,*,*,#37,.T.);
#44=CONICAL_SURFACE($,#52,2.094,59.);
#45=ADVANCED_FACE($,(#21),#44,.F.);
#46=ADVANCED_FACE($,(#22,#16),#20,.F.);
#47=ADVANCED_FACE($,(#17),#15,.T.);
#48=ADVANCED_FACE($,(#18,#19),#12,.T.);
#49=CLOSED_SHELL($,(#45,#46,#47,#48));
#50=MANIFOLD_SOLID_BREP('Volumenk\X\F6rper1',#49);
#51=AXIS2_PLACEMENT_3D('placement',#75,#59,#60);
#52=AXIS2_PLACEMENT_3D($,#76,#61,#62);
#53=AXIS2_PLACEMENT_3D($,#78,#63,#64);
#54=AXIS2_PLACEMENT_3D($,#79,#65,#66);
#55=AXIS2_PLACEMENT_3D($,#81,#67,#68);
#56=AXIS2_PLACEMENT_3D($,#82,#69,#70);
#57=AXIS2_PLACEMENT_3D($,#84,#71,#72);
#58=AXIS2_PLACEMENT_3D($,#85,#73,#74);
#59=DIRECTION('axis',(0.,0.,1.));
#60=DIRECTION('refdir',(1.,0.,0.));
#61=DIRECTION('center_axis',(-9.07457831057657E-017,1.,0.));
#62=DIRECTION('ref_axis',(1.,9.07457831057657E-017,0.));
#63=DIRECTION('center_axis',(-9.07457831057657E-017,1.,0.));
#64=DIRECTION('ref_axis',(1.,9.07457831057657E-017,0.));
#65=DIRECTION('center_axis',(-9.07457831057657E-017,1.,0.));
#66=DIRECTION('ref_axis',(1.,9.07457831057657E-017,0.));
#67=DIRECTION('center_axis',(9.07457831057657E-017,-1.,0.));
#68=DIRECTION('ref_axis',(1.,9.07457831057657E-017,0.));
#69=DIRECTION('center_axis',(8.88178419700125E-017,0.,1.));
#70=DIRECTION('ref_axis',(1.,0.,0.));
#71=DIRECTION('center_axis',(-9.07457831057657E-017,1.,0.));
#72=DIRECTION('ref_axis',(-1.,0.,0.));
#73=DIRECTION('center_axis',(-9.07457831057657E-017,1.,0.));
#74=DIRECTION('ref_axis',(0.,0.,1.));
#75=CARTESIAN_POINT('',(0.,0.,0.));
#76=CARTESIAN_POINT('Origin',(-8.65326478668349,-5.01803063198122,0.));
#77=CARTESIAN_POINT('',(-4.46526478668349,-3.75982849573751,0.));
#78=CARTESIAN_POINT('Origin',(-8.65326478668349,-3.75982849573751,0.));
#79=CARTESIAN_POINT('Origin',(-8.65326478668349,3.7401715042625,0.));
#80=CARTESIAN_POINT('',(-4.46526478668349,11.2401715042625,0.));
#81=CARTESIAN_POINT('Origin',(-8.65326478668349,11.2401715042625,0.));
#82=CARTESIAN_POINT('Origin',(-8.65326478668349,-5.46312158422757,0.));
#83=CARTESIAN_POINT('',(-19.6532647866835,11.2401715042625,0.));
#84=CARTESIAN_POINT('Origin',(-8.65326478668349,11.2401715042625,0.));
#85=CARTESIAN_POINT('Origin',(-14.1532647866835,11.2401715042625,0.));
#86=UNCERTAINTY_MEASURE_WITH_UNIT(LENGTH_MEASURE(0.01),#88,
'DISTANCE_ACCURACY_VALUE',
'Maximum model space distance between geometric entities at asserted c
onnectivities');
#87=(
GEOMETRIC_REPRESENTATION_CONTEXT(3)
GLOBAL_UNCERTAINTY_ASSIGNED_CONTEXT((#86))
GLOBAL_UNIT_ASSIGNED_CONTEXT((#88,#91,#89))
REPRESENTATION_CONTEXT('','3D')
);
#88=(
LENGTH_UNIT()
NAMED_UNIT(*)
SI_UNIT(.MILLI.,.METRE.)
);
#89=(
NAMED_UNIT(*)
SI_UNIT($,.STERADIAN.)
SOLID_ANGLE_UNIT()
);
#90=DIMENSIONAL_EXPONENTS(0.,0.,0.,0.,0.,0.,0.);
#91=(
CONVERSION_BASED_UNIT('degree',#93)
NAMED_UNIT(#90)
PLANE_ANGLE_UNIT()
);
#92=(
NAMED_UNIT(*)
PLANE_ANGLE_UNIT()
SI_UNIT($,.RADIAN.)
);
#93=PLANE_ANGLE_MEASURE_WITH_UNIT(PLANE_ANGLE_MEASURE(0.01745329252),#92);
#94=SHAPE_DEFINITION_REPRESENTATION(#95,#96);
#95=PRODUCT_DEFINITION_SHAPE('',$,#98);
#96=SHAPE_REPRESENTATION('',(#51),#87);
#97=PRODUCT_DEFINITION_CONTEXT('3D Mechanical Parts',#101,'design');
#98=PRODUCT_DEFINITION('11377_KriTec_Kugelgriff_40mm_M10',
'11377_KriTec_Kugelgriff_40mm_M10',#99,#97);
#99=PRODUCT_DEFINITION_FORMATION('',$,#103);
#100=APPLICATION_PROTOCOL_DEFINITION('international standard',
'automotive_design',2009,#101);
#101=APPLICATION_CONTEXT(
'Core Data for Automotive Mechanical Design Process');
#102=PRODUCT_CONTEXT('3D Mechanical Parts',#101,'mechanical');
#103=PRODUCT('11377_KriTec_Kugelgriff_40mm_M10',
'11377_KriTec_Kugelgriff_40mm_M10',$,(#102));
#104=PRESENTATION_STYLE_ASSIGNMENT((#106));
#105=PRESENTATION_STYLE_ASSIGNMENT((#107));
#106=SURFACE_STYLE_USAGE(.BOTH.,#108);
#107=SURFACE_STYLE_USAGE(.BOTH.,#109);
#108=SURFACE_SIDE_STYLE($,(#110));
#109=SURFACE_SIDE_STYLE($,(#111));
#110=SURFACE_STYLE_FILL_AREA(#112);
#111=SURFACE_STYLE_FILL_AREA(#113);
#112=FILL_AREA_STYLE($,(#114));
#113=FILL_AREA_STYLE($,(#115));
#114=FILL_AREA_STYLE_COLOUR($,#116);
#115=FILL_AREA_STYLE_COLOUR($,#117);
#116=COLOUR_RGB('',0.0196078431372549,0.0196078431372549,0.0196078431372549);
#117=COLOUR_RGB('',1.,1.,1.);
ENDSEC;
END-ISO-10303-21;
