ISO-10303-21;
HEADER;
/* Generated by software containing ST-Developer
 * from STEP Tools, Inc. (www.steptools.com) 
 */

FILE_DESCRIPTION(
/* description */ (''),
/* implementation_level */ '2;1');

FILE_NAME(
/* name */ 
'S:\\Bilder_neu\\11352_KriTec_Aluwinkel_6_30x30x30x4\\Inventordateien\\
11352_KriTec_Aluwinkel_6_30x30x30x4.stp',
/* time_stamp */ '2014-09-15T09:57:25+02:00',
/* author */ ('kostic'),
/* organization */ (''),
/* preprocessor_version */ 'ST-DEVELOPER v15.2',
/* originating_system */ 'Autodesk Inventor 2014',
/* authorisation */ '');

FILE_SCHEMA (('AUTOMOTIVE_DESIGN { 1 0 10303 214 3 1 1 }'));
ENDSEC;

DATA;
#10=SHAPE_REPRESENTATION_RELATIONSHIP('SRR','None',#311,#11);
#11=ADVANCED_BREP_SHAPE_REPRESENTATION($,(#188),#302);
#12=STYLED_ITEM($,(#319),#188);
#13=LINE($,#266,#31);
#14=LINE($,#268,#32);
#15=LINE($,#270,#33);
#16=LINE($,#271,#34);
#17=LINE($,#274,#35);
#18=LINE($,#276,#36);
#19=LINE($,#277,#37);
#20=LINE($,#280,#38);
#21=LINE($,#282,#39);
#22=LINE($,#283,#40);
#23=LINE($,#286,#41);
#24=LINE($,#288,#42);
#25=LINE($,#289,#43);
#26=LINE($,#292,#44);
#27=LINE($,#294,#45);
#28=LINE($,#295,#46);
#29=LINE($,#297,#47);
#30=LINE($,#298,#48);
#31=VECTOR($,#220,4.);
#32=VECTOR($,#221,30.);
#33=VECTOR($,#222,4.);
#34=VECTOR($,#223,30.);
#35=VECTOR($,#226,26.);
#36=VECTOR($,#227,26.);
#37=VECTOR($,#228,30.);
#38=VECTOR($,#231,26.);
#39=VECTOR($,#232,26.);
#40=VECTOR($,#233,30.);
#41=VECTOR($,#236,4.);
#42=VECTOR($,#237,4.);
#43=VECTOR($,#238,30.);
#44=VECTOR($,#241,30.);
#45=VECTOR($,#242,30.);
#46=VECTOR($,#243,30.);
#47=VECTOR($,#246,30.);
#48=VECTOR($,#247,30.);
#49=PLANE($,#196);
#50=PLANE($,#197);
#51=PLANE($,#198);
#52=PLANE($,#199);
#53=PLANE($,#200);
#54=PLANE($,#201);
#55=PLANE($,#202);
#56=PLANE($,#203);
#57=FACE_BOUND($,#74,.T.);
#58=FACE_BOUND($,#76,.T.);
#59=FACE_BOUND($,#78,.T.);
#60=FACE_BOUND($,#79,.T.);
#61=FACE_BOUND($,#80,.T.);
#62=FACE_BOUND($,#81,.T.);
#63=FACE_BOUND($,#83,.T.);
#64=FACE_BOUND($,#84,.T.);
#65=FACE_BOUND($,#85,.T.);
#66=FACE_BOUND($,#86,.T.);
#67=FACE_OUTER_BOUND($,#73,.T.);
#68=FACE_OUTER_BOUND($,#75,.T.);
#69=FACE_OUTER_BOUND($,#77,.T.);
#70=FACE_OUTER_BOUND($,#82,.T.);
#71=FACE_OUTER_BOUND($,#87,.T.);
#72=FACE_OUTER_BOUND($,#88,.T.);
#73=EDGE_LOOP($,(#131));
#74=EDGE_LOOP($,(#132));
#75=EDGE_LOOP($,(#133));
#76=EDGE_LOOP($,(#134));
#77=EDGE_LOOP($,(#135,#136,#137,#138));
#78=EDGE_LOOP($,(#139));
#79=EDGE_LOOP($,(#140,#141,#142,#143));
#80=EDGE_LOOP($,(#144));
#81=EDGE_LOOP($,(#145,#146,#147,#148));
#82=EDGE_LOOP($,(#149,#150,#151,#152));
#83=EDGE_LOOP($,(#153));
#84=EDGE_LOOP($,(#154,#155,#156,#157));
#85=EDGE_LOOP($,(#158));
#86=EDGE_LOOP($,(#159,#160,#161,#162));
#87=EDGE_LOOP($,(#163,#164,#165,#166,#167,#168));
#88=EDGE_LOOP($,(#169,#170,#171,#172,#173,#174));
#89=CIRCLE($,#191,3.25);
#90=CIRCLE($,#192,3.25);
#91=CIRCLE($,#194,3.25);
#92=CIRCLE($,#195,3.25);
#93=VERTEX_POINT($,#254);
#94=VERTEX_POINT($,#256);
#95=VERTEX_POINT($,#259);
#96=VERTEX_POINT($,#261);
#97=VERTEX_POINT($,#264);
#98=VERTEX_POINT($,#265);
#99=VERTEX_POINT($,#267);
#100=VERTEX_POINT($,#269);
#101=VERTEX_POINT($,#273);
#102=VERTEX_POINT($,#275);
#103=VERTEX_POINT($,#279);
#104=VERTEX_POINT($,#281);
#105=VERTEX_POINT($,#285);
#106=VERTEX_POINT($,#287);
#107=VERTEX_POINT($,#291);
#108=VERTEX_POINT($,#293);
#109=EDGE_CURVE($,#93,#93,#89,.T.);
#110=EDGE_CURVE($,#94,#94,#90,.T.);
#111=EDGE_CURVE($,#95,#95,#91,.T.);
#112=EDGE_CURVE($,#96,#96,#92,.T.);
#113=EDGE_CURVE($,#97,#98,#13,.T.);
#114=EDGE_CURVE($,#97,#99,#14,.T.);
#115=EDGE_CURVE($,#100,#99,#15,.T.);
#116=EDGE_CURVE($,#98,#100,#16,.T.);
#117=EDGE_CURVE($,#98,#101,#17,.T.);
#118=EDGE_CURVE($,#102,#100,#18,.T.);
#119=EDGE_CURVE($,#101,#102,#19,.T.);
#120=EDGE_CURVE($,#101,#103,#20,.T.);
#121=EDGE_CURVE($,#104,#102,#21,.T.);
#122=EDGE_CURVE($,#103,#104,#22,.T.);
#123=EDGE_CURVE($,#103,#105,#23,.T.);
#124=EDGE_CURVE($,#106,#104,#24,.T.);
#125=EDGE_CURVE($,#105,#106,#25,.T.);
#126=EDGE_CURVE($,#105,#107,#26,.T.);
#127=EDGE_CURVE($,#108,#106,#27,.T.);
#128=EDGE_CURVE($,#107,#108,#28,.T.);
#129=EDGE_CURVE($,#107,#97,#29,.T.);
#130=EDGE_CURVE($,#99,#108,#30,.T.);
#131=ORIENTED_EDGE($,*,*,#109,.F.);
#132=ORIENTED_EDGE($,*,*,#110,.F.);
#133=ORIENTED_EDGE($,*,*,#111,.F.);
#134=ORIENTED_EDGE($,*,*,#112,.F.);
#135=ORIENTED_EDGE($,*,*,#113,.F.);
#136=ORIENTED_EDGE($,*,*,#114,.T.);
#137=ORIENTED_EDGE($,*,*,#115,.F.);
#138=ORIENTED_EDGE($,*,*,#116,.F.);
#139=ORIENTED_EDGE($,*,*,#109,.T.);
#140=ORIENTED_EDGE($,*,*,#117,.F.);
#141=ORIENTED_EDGE($,*,*,#116,.T.);
#142=ORIENTED_EDGE($,*,*,#118,.F.);
#143=ORIENTED_EDGE($,*,*,#119,.F.);
#144=ORIENTED_EDGE($,*,*,#111,.T.);
#145=ORIENTED_EDGE($,*,*,#120,.F.);
#146=ORIENTED_EDGE($,*,*,#119,.T.);
#147=ORIENTED_EDGE($,*,*,#121,.F.);
#148=ORIENTED_EDGE($,*,*,#122,.F.);
#149=ORIENTED_EDGE($,*,*,#123,.F.);
#150=ORIENTED_EDGE($,*,*,#122,.T.);
#151=ORIENTED_EDGE($,*,*,#124,.F.);
#152=ORIENTED_EDGE($,*,*,#125,.F.);
#153=ORIENTED_EDGE($,*,*,#112,.T.);
#154=ORIENTED_EDGE($,*,*,#126,.F.);
#155=ORIENTED_EDGE($,*,*,#125,.T.);
#156=ORIENTED_EDGE($,*,*,#127,.F.);
#157=ORIENTED_EDGE($,*,*,#128,.F.);
#158=ORIENTED_EDGE($,*,*,#110,.T.);
#159=ORIENTED_EDGE($,*,*,#129,.F.);
#160=ORIENTED_EDGE($,*,*,#128,.T.);
#161=ORIENTED_EDGE($,*,*,#130,.F.);
#162=ORIENTED_EDGE($,*,*,#114,.F.);
#163=ORIENTED_EDGE($,*,*,#129,.T.);
#164=ORIENTED_EDGE($,*,*,#113,.T.);
#165=ORIENTED_EDGE($,*,*,#117,.T.);
#166=ORIENTED_EDGE($,*,*,#120,.T.);
#167=ORIENTED_EDGE($,*,*,#123,.T.);
#168=ORIENTED_EDGE($,*,*,#126,.T.);
#169=ORIENTED_EDGE($,*,*,#130,.T.);
#170=ORIENTED_EDGE($,*,*,#127,.T.);
#171=ORIENTED_EDGE($,*,*,#124,.T.);
#172=ORIENTED_EDGE($,*,*,#121,.T.);
#173=ORIENTED_EDGE($,*,*,#118,.T.);
#174=ORIENTED_EDGE($,*,*,#115,.T.);
#175=CYLINDRICAL_SURFACE($,#190,3.25);
#176=CYLINDRICAL_SURFACE($,#193,3.25);
#177=ADVANCED_FACE($,(#67,#57),#175,.F.);
#178=ADVANCED_FACE($,(#68,#58),#176,.F.);
#179=ADVANCED_FACE($,(#69),#49,.T.);
#180=ADVANCED_FACE($,(#59,#60),#50,.T.);
#181=ADVANCED_FACE($,(#61,#62),#51,.T.);
#182=ADVANCED_FACE($,(#70),#52,.T.);
#183=ADVANCED_FACE($,(#63,#64),#53,.T.);
#184=ADVANCED_FACE($,(#65,#66),#54,.T.);
#185=ADVANCED_FACE($,(#71),#55,.F.);
#186=ADVANCED_FACE($,(#72),#56,.T.);
#187=CLOSED_SHELL($,(#177,#178,#179,#180,#181,#182,#183,#184,#185,#186));
#188=MANIFOLD_SOLID_BREP('Volumenk\X\F6rper4',#187);
#189=AXIS2_PLACEMENT_3D('placement',#252,#204,#205);
#190=AXIS2_PLACEMENT_3D($,#253,#206,#207);
#191=AXIS2_PLACEMENT_3D($,#255,#208,#209);
#192=AXIS2_PLACEMENT_3D($,#257,#210,#211);
#193=AXIS2_PLACEMENT_3D($,#258,#212,#213);
#194=AXIS2_PLACEMENT_3D($,#260,#214,#215);
#195=AXIS2_PLACEMENT_3D($,#262,#216,#217);
#196=AXIS2_PLACEMENT_3D($,#263,#218,#219);
#197=AXIS2_PLACEMENT_3D($,#272,#224,#225);
#198=AXIS2_PLACEMENT_3D($,#278,#229,#230);
#199=AXIS2_PLACEMENT_3D($,#284,#234,#235);
#200=AXIS2_PLACEMENT_3D($,#290,#239,#240);
#201=AXIS2_PLACEMENT_3D($,#296,#244,#245);
#202=AXIS2_PLACEMENT_3D($,#299,#248,#249);
#203=AXIS2_PLACEMENT_3D($,#300,#250,#251);
#204=DIRECTION('axis',(0.,0.,1.));
#205=DIRECTION('refdir',(1.,0.,0.));
#206=DIRECTION('center_axis',(-1.,0.,0.));
#207=DIRECTION('ref_axis',(0.,0.,1.));
#208=DIRECTION('center_axis',(-1.,-4.2700885562506E-017,0.));
#209=DIRECTION('ref_axis',(0.,0.,1.));
#210=DIRECTION('center_axis',(1.,0.,0.));
#211=DIRECTION('ref_axis',(0.,0.,1.));
#212=DIRECTION('center_axis',(1.83697019872103E-016,-1.,0.));
#213=DIRECTION('ref_axis',(1.,1.83697019872103E-016,0.));
#214=DIRECTION('center_axis',(1.06752213906265E-016,-1.,0.));
#215=DIRECTION('ref_axis',(1.,1.83697019872103E-016,0.));
#216=DIRECTION('center_axis',(-1.83697019872103E-016,1.,0.));
#217=DIRECTION('ref_axis',(1.,1.83697019872103E-016,0.));
#218=DIRECTION('center_axis',(0.,1.,0.));
#219=DIRECTION('ref_axis',(-1.,0.,0.));
#220=DIRECTION($,(1.,0.,0.));
#221=DIRECTION($,(0.,0.,1.));
#222=DIRECTION($,(-1.,0.,0.));
#223=DIRECTION($,(0.,0.,1.));
#224=DIRECTION('center_axis',(1.,4.2700885562506E-017,0.));
#225=DIRECTION('ref_axis',(0.,1.,0.));
#226=DIRECTION($,(4.2700885562506E-017,-1.,0.));
#227=DIRECTION($,(-4.2700885562506E-017,1.,0.));
#228=DIRECTION($,(0.,0.,1.));
#229=DIRECTION('center_axis',(-1.06752213906265E-016,1.,0.));
#230=DIRECTION('ref_axis',(-1.,-8.88178419700125E-017,0.));
#231=DIRECTION($,(1.,1.06752213906265E-016,0.));
#232=DIRECTION($,(-1.,-1.06752213906265E-016,0.));
#233=DIRECTION($,(0.,0.,1.));
#234=DIRECTION('center_axis',(1.,0.,0.));
#235=DIRECTION('ref_axis',(0.,1.,0.));
#236=DIRECTION($,(0.,-1.,0.));
#237=DIRECTION($,(0.,1.,0.));
#238=DIRECTION($,(0.,0.,1.));
#239=DIRECTION('center_axis',(1.83697019872103E-016,-1.,0.));
#240=DIRECTION('ref_axis',(1.,1.83697019872103E-016,0.));
#241=DIRECTION($,(-1.,-1.83697019872103E-016,0.));
#242=DIRECTION($,(1.,1.83697019872103E-016,0.));
#243=DIRECTION($,(0.,0.,1.));
#244=DIRECTION('center_axis',(-1.,0.,0.));
#245=DIRECTION('ref_axis',(0.,-1.,0.));
#246=DIRECTION($,(0.,1.,0.));
#247=DIRECTION($,(0.,-1.,0.));
#248=DIRECTION('center_axis',(0.,0.,1.));
#249=DIRECTION('ref_axis',(1.,0.,0.));
#250=DIRECTION('center_axis',(0.,0.,1.));
#251=DIRECTION('ref_axis',(1.,0.,0.));
#252=CARTESIAN_POINT('',(0.,0.,0.));
#253=CARTESIAN_POINT('Origin',(51.9615242270663,15.,15.));
#254=CARTESIAN_POINT('',(4.,15.,11.75));
#255=CARTESIAN_POINT('Origin',(4.,15.,15.));
#256=CARTESIAN_POINT('',(0.,15.,18.25));
#257=CARTESIAN_POINT('Origin',(0.,15.,15.));
#258=CARTESIAN_POINT('Origin',(15.,51.9615242270663,15.));
#259=CARTESIAN_POINT('',(11.75,4.,15.));
#260=CARTESIAN_POINT('Origin',(15.,4.,15.));
#261=CARTESIAN_POINT('',(18.25,3.35247061266588E-015,15.));
#262=CARTESIAN_POINT('Origin',(15.,0.,15.));
#263=CARTESIAN_POINT('Origin',(4.,30.,0.));
#264=CARTESIAN_POINT('',(0.,30.,0.));
#265=CARTESIAN_POINT('',(4.,30.,0.));
#266=CARTESIAN_POINT($,(0.,30.,0.));
#267=CARTESIAN_POINT('',(0.,30.,30.));
#268=CARTESIAN_POINT($,(0.,30.,0.));
#269=CARTESIAN_POINT('',(4.,30.,30.));
#270=CARTESIAN_POINT($,(0.,30.,30.));
#271=CARTESIAN_POINT($,(4.,30.,0.));
#272=CARTESIAN_POINT('Origin',(4.,4.,0.));
#273=CARTESIAN_POINT('',(4.,4.,0.));
#274=CARTESIAN_POINT($,(4.,30.,0.));
#275=CARTESIAN_POINT('',(4.,4.,30.));
#276=CARTESIAN_POINT($,(4.,30.,30.));
#277=CARTESIAN_POINT($,(4.,4.,0.));
#278=CARTESIAN_POINT('Origin',(30.,4.00000000000001,0.));
#279=CARTESIAN_POINT('',(30.,4.00000000000001,0.));
#280=CARTESIAN_POINT($,(4.,4.,0.));
#281=CARTESIAN_POINT('',(30.,4.00000000000001,30.));
#282=CARTESIAN_POINT($,(4.,4.,30.));
#283=CARTESIAN_POINT($,(30.,4.00000000000001,0.));
#284=CARTESIAN_POINT('Origin',(30.,5.55111512312578E-015,0.));
#285=CARTESIAN_POINT('',(30.,5.51091059616309E-015,0.));
#286=CARTESIAN_POINT($,(30.,4.00000000000001,0.));
#287=CARTESIAN_POINT('',(30.,5.51091059616309E-015,30.));
#288=CARTESIAN_POINT($,(30.,4.00000000000001,30.));
#289=CARTESIAN_POINT($,(30.,5.51091059616309E-015,0.));
#290=CARTESIAN_POINT('Origin',(0.,0.,0.));
#291=CARTESIAN_POINT('',(0.,0.,0.));
#292=CARTESIAN_POINT($,(30.,5.51091059616309E-015,0.));
#293=CARTESIAN_POINT('',(0.,0.,30.));
#294=CARTESIAN_POINT($,(30.,5.51091059616309E-015,30.));
#295=CARTESIAN_POINT($,(0.,0.,0.));
#296=CARTESIAN_POINT('Origin',(0.,30.,0.));
#297=CARTESIAN_POINT($,(0.,0.,0.));
#298=CARTESIAN_POINT($,(0.,0.,30.));
#299=CARTESIAN_POINT('Origin',(9.36666666666667,9.36666666666667,0.));
#300=CARTESIAN_POINT('Origin',(9.36666666666667,9.36666666666667,30.));
#301=UNCERTAINTY_MEASURE_WITH_UNIT(LENGTH_MEASURE(0.01),#303,
'DISTANCE_ACCURACY_VALUE',
'Maximum model space distance between geometric entities at asserted c
onnectivities');
#302=(
GEOMETRIC_REPRESENTATION_CONTEXT(3)
GLOBAL_UNCERTAINTY_ASSIGNED_CONTEXT((#301))
GLOBAL_UNIT_ASSIGNED_CONTEXT((#303,#306,#304))
REPRESENTATION_CONTEXT('','3D')
);
#303=(
LENGTH_UNIT()
NAMED_UNIT(*)
SI_UNIT(.MILLI.,.METRE.)
);
#304=(
NAMED_UNIT(*)
SI_UNIT($,.STERADIAN.)
SOLID_ANGLE_UNIT()
);
#305=DIMENSIONAL_EXPONENTS(0.,0.,0.,0.,0.,0.,0.);
#306=(
CONVERSION_BASED_UNIT('degree',#308)
NAMED_UNIT(#305)
PLANE_ANGLE_UNIT()
);
#307=(
NAMED_UNIT(*)
PLANE_ANGLE_UNIT()
SI_UNIT($,.RADIAN.)
);
#308=PLANE_ANGLE_MEASURE_WITH_UNIT(PLANE_ANGLE_MEASURE(0.01745329252),#307);
#309=SHAPE_DEFINITION_REPRESENTATION(#310,#311);
#310=PRODUCT_DEFINITION_SHAPE('',$,#313);
#311=SHAPE_REPRESENTATION('',(#189),#302);
#312=PRODUCT_DEFINITION_CONTEXT('3D Mechanical Parts',#316,'design');
#313=PRODUCT_DEFINITION('11352_KriTec_Aluwinkel_6_30x30x30x4',
'11352_KriTec_Aluwinkel_6_30x30x30x4',#314,#312);
#314=PRODUCT_DEFINITION_FORMATION('',$,#318);
#315=APPLICATION_PROTOCOL_DEFINITION('international standard',
'automotive_design',2009,#316);
#316=APPLICATION_CONTEXT(
'Core Data for Automotive Mechanical Design Process');
#317=PRODUCT_CONTEXT('3D Mechanical Parts',#316,'mechanical');
#318=PRODUCT('11352_KriTec_Aluwinkel_6_30x30x30x4',
'11352_KriTec_Aluwinkel_6_30x30x30x4',$,(#317));
#319=PRESENTATION_STYLE_ASSIGNMENT((#320));
#320=SURFACE_STYLE_USAGE(.BOTH.,#321);
#321=SURFACE_SIDE_STYLE($,(#322));
#322=SURFACE_STYLE_FILL_AREA(#323);
#323=FILL_AREA_STYLE($,(#324));
#324=FILL_AREA_STYLE_COLOUR($,#325);
#325=COLOUR_RGB('',0.831372549019608,0.831372549019608,0.831372549019608);
ENDSEC;
END-ISO-10303-21;
