ISO-10303-21;
HEADER;
/* Generated by software containing ST-Developer
 * from STEP Tools, Inc. (www.steptools.com) 
 */

FILE_DESCRIPTION(
/* description */ (''),
/* implementation_level */ '2;1');

FILE_NAME(
/* name */ 
'S:\\Bilder_neu\\11128_KriTec_Bolzen_8_D10_zentrisch\\Inventordateien\\
11228_KriTec_Bolzen_8_D10_zentrisch.stp',
/* time_stamp */ '2014-05-07T16:47:53+02:00',
/* author */ ('kostic'),
/* organization */ (''),
/* preprocessor_version */ 'ST-DEVELOPER v15.2',
/* originating_system */ 'Autodesk Inventor 2014',
/* authorisation */ '');

FILE_SCHEMA (('AUTOMOTIVE_DESIGN { 1 0 10303 214 3 1 1 }'));
ENDSEC;

DATA;
#10=SHAPE_REPRESENTATION_RELATIONSHIP('SRR','None',#438,#11);
#11=ADVANCED_BREP_SHAPE_REPRESENTATION($,(#251),#432);
#12=STYLED_ITEM($,(#446),#251);
#13=LINE($,#406,#25);
#14=LINE($,#408,#26);
#15=LINE($,#409,#27);
#16=LINE($,#412,#28);
#17=LINE($,#413,#29);
#18=LINE($,#416,#30);
#19=LINE($,#417,#31);
#20=LINE($,#420,#32);
#21=LINE($,#421,#33);
#22=LINE($,#424,#34);
#23=LINE($,#425,#35);
#24=LINE($,#427,#36);
#25=VECTOR($,#317,2.77633333333331);
#26=VECTOR($,#318,2.8867513459481);
#27=VECTOR($,#319,2.77633333333331);
#28=VECTOR($,#322,2.77633333333331);
#29=VECTOR($,#323,2.8867513459481);
#30=VECTOR($,#326,2.77633333333331);
#31=VECTOR($,#327,2.8867513459482);
#32=VECTOR($,#330,2.77633333333331);
#33=VECTOR($,#331,2.8867513459481);
#34=VECTOR($,#334,2.77633333333331);
#35=VECTOR($,#335,2.8867513459481);
#36=VECTOR($,#338,2.8867513459482);
#37=(
BOUNDED_CURVE()
B_SPLINE_CURVE(2,(#368,#369,#370),.UNSPECIFIED.,.F.,.F.)
B_SPLINE_CURVE_WITH_KNOTS((3,3),(1.46054517259738,2.92109034519476),
 .UNSPECIFIED.)
CURVE()
GEOMETRIC_REPRESENTATION_ITEM()
RATIONAL_B_SPLINE_CURVE((1.07735026918961,1.07735026918961,1.))
REPRESENTATION_ITEM($)
);
#38=(
BOUNDED_CURVE()
B_SPLINE_CURVE(2,(#372,#373,#374),.UNSPECIFIED.,.F.,.F.)
B_SPLINE_CURVE_WITH_KNOTS((3,3),(0.,2.92109034519476),.UNSPECIFIED.)
CURVE()
GEOMETRIC_REPRESENTATION_ITEM()
RATIONAL_B_SPLINE_CURVE((1.,1.15470053837929,1.))
REPRESENTATION_ITEM($)
);
#39=(
BOUNDED_CURVE()
B_SPLINE_CURVE(2,(#376,#377,#378),.UNSPECIFIED.,.F.,.F.)
B_SPLINE_CURVE_WITH_KNOTS((3,3),(0.,2.92109034519476),.UNSPECIFIED.)
CURVE()
GEOMETRIC_REPRESENTATION_ITEM()
RATIONAL_B_SPLINE_CURVE((1.,1.15470053837929,1.))
REPRESENTATION_ITEM($)
);
#40=(
BOUNDED_CURVE()
B_SPLINE_CURVE(2,(#380,#381,#382),.UNSPECIFIED.,.F.,.F.)
B_SPLINE_CURVE_WITH_KNOTS((3,3),(0.,1.46054517259738),.UNSPECIFIED.)
CURVE()
GEOMETRIC_REPRESENTATION_ITEM()
RATIONAL_B_SPLINE_CURVE((1.,1.07735026918961,1.07735026918961))
REPRESENTATION_ITEM($)
);
#41=(
BOUNDED_CURVE()
B_SPLINE_CURVE(2,(#384,#385,#386),.UNSPECIFIED.,.F.,.F.)
B_SPLINE_CURVE_WITH_KNOTS((3,3),(1.46054517259738,2.92109034519476),
 .UNSPECIFIED.)
CURVE()
GEOMETRIC_REPRESENTATION_ITEM()
RATIONAL_B_SPLINE_CURVE((1.07735026918961,1.0773502691896,1.))
REPRESENTATION_ITEM($)
);
#42=(
BOUNDED_CURVE()
B_SPLINE_CURVE(2,(#388,#389,#390),.UNSPECIFIED.,.F.,.F.)
B_SPLINE_CURVE_WITH_KNOTS((3,3),(0.,2.92109034519476),.UNSPECIFIED.)
CURVE()
GEOMETRIC_REPRESENTATION_ITEM()
RATIONAL_B_SPLINE_CURVE((1.,1.15470053837929,1.))
REPRESENTATION_ITEM($)
);
#43=(
BOUNDED_CURVE()
B_SPLINE_CURVE(2,(#392,#393,#394),.UNSPECIFIED.,.F.,.F.)
B_SPLINE_CURVE_WITH_KNOTS((3,3),(0.,2.92109034519476),.UNSPECIFIED.)
CURVE()
GEOMETRIC_REPRESENTATION_ITEM()
RATIONAL_B_SPLINE_CURVE((1.,1.15470053837929,1.))
REPRESENTATION_ITEM($)
);
#44=(
BOUNDED_CURVE()
B_SPLINE_CURVE(2,(#395,#396,#397),.UNSPECIFIED.,.F.,.F.)
B_SPLINE_CURVE_WITH_KNOTS((3,3),(0.,1.46054517259738),.UNSPECIFIED.)
CURVE()
GEOMETRIC_REPRESENTATION_ITEM()
RATIONAL_B_SPLINE_CURVE((1.,1.0773502691896,1.07735026918961))
REPRESENTATION_ITEM($)
);
#45=PLANE($,#258);
#46=PLANE($,#270);
#47=PLANE($,#271);
#48=PLANE($,#272);
#49=PLANE($,#273);
#50=PLANE($,#274);
#51=PLANE($,#275);
#52=PLANE($,#276);
#53=PLANE($,#277);
#54=PLANE($,#278);
#55=CYLINDRICAL_SURFACE($,#256,3.);
#56=CYLINDRICAL_SURFACE($,#259,7.);
#57=CYLINDRICAL_SURFACE($,#262,4.);
#58=FACE_BOUND($,#85,.T.);
#59=FACE_BOUND($,#87,.T.);
#60=FACE_BOUND($,#90,.T.);
#61=FACE_BOUND($,#92,.T.);
#62=FACE_BOUND($,#95,.T.);
#63=FACE_BOUND($,#97,.T.);
#64=FACE_BOUND($,#105,.T.);
#65=FACE_BOUND($,#107,.T.);
#66=FACE_BOUND($,#109,.T.);
#67=FACE_OUTER_BOUND($,#84,.T.);
#68=FACE_OUTER_BOUND($,#86,.T.);
#69=FACE_OUTER_BOUND($,#88,.T.);
#70=FACE_OUTER_BOUND($,#89,.T.);
#71=FACE_OUTER_BOUND($,#91,.T.);
#72=FACE_OUTER_BOUND($,#93,.T.);
#73=FACE_OUTER_BOUND($,#94,.T.);
#74=FACE_OUTER_BOUND($,#96,.T.);
#75=FACE_OUTER_BOUND($,#98,.T.);
#76=FACE_OUTER_BOUND($,#99,.T.);
#77=FACE_OUTER_BOUND($,#100,.T.);
#78=FACE_OUTER_BOUND($,#101,.T.);
#79=FACE_OUTER_BOUND($,#102,.T.);
#80=FACE_OUTER_BOUND($,#103,.T.);
#81=FACE_OUTER_BOUND($,#104,.T.);
#82=FACE_OUTER_BOUND($,#106,.T.);
#83=FACE_OUTER_BOUND($,#108,.T.);
#84=EDGE_LOOP($,(#171));
#85=EDGE_LOOP($,(#172));
#86=EDGE_LOOP($,(#173));
#87=EDGE_LOOP($,(#174));
#88=EDGE_LOOP($,(#175));
#89=EDGE_LOOP($,(#176));
#90=EDGE_LOOP($,(#177));
#91=EDGE_LOOP($,(#178));
#92=EDGE_LOOP($,(#179));
#93=EDGE_LOOP($,(#180,#181,#182,#183,#184,#185,#186,#187));
#94=EDGE_LOOP($,(#188));
#95=EDGE_LOOP($,(#189));
#96=EDGE_LOOP($,(#190));
#97=EDGE_LOOP($,(#191));
#98=EDGE_LOOP($,(#192,#193,#194,#195));
#99=EDGE_LOOP($,(#196,#197,#198,#199));
#100=EDGE_LOOP($,(#200,#201,#202,#203,#204));
#101=EDGE_LOOP($,(#205,#206,#207,#208));
#102=EDGE_LOOP($,(#209,#210,#211,#212));
#103=EDGE_LOOP($,(#213,#214,#215,#216,#217));
#104=EDGE_LOOP($,(#218));
#105=EDGE_LOOP($,(#219));
#106=EDGE_LOOP($,(#220));
#107=EDGE_LOOP($,(#221,#222,#223,#224,#225,#226));
#108=EDGE_LOOP($,(#227));
#109=EDGE_LOOP($,(#228));
#110=CIRCLE($,#254,3.);
#111=CIRCLE($,#255,2.);
#112=CIRCLE($,#257,3.);
#113=CIRCLE($,#260,7.);
#114=CIRCLE($,#261,7.);
#115=CIRCLE($,#263,4.);
#116=CIRCLE($,#264,4.);
#117=CIRCLE($,#267,6.7);
#118=CIRCLE($,#269,6.7);
#119=VERTEX_POINT($,#347);
#120=VERTEX_POINT($,#349);
#121=VERTEX_POINT($,#352);
#122=VERTEX_POINT($,#356);
#123=VERTEX_POINT($,#358);
#124=VERTEX_POINT($,#361);
#125=VERTEX_POINT($,#363);
#126=VERTEX_POINT($,#366);
#127=VERTEX_POINT($,#367);
#128=VERTEX_POINT($,#371);
#129=VERTEX_POINT($,#375);
#130=VERTEX_POINT($,#379);
#131=VERTEX_POINT($,#383);
#132=VERTEX_POINT($,#387);
#133=VERTEX_POINT($,#391);
#134=VERTEX_POINT($,#399);
#135=VERTEX_POINT($,#402);
#136=VERTEX_POINT($,#405);
#137=VERTEX_POINT($,#407);
#138=VERTEX_POINT($,#411);
#139=VERTEX_POINT($,#415);
#140=VERTEX_POINT($,#419);
#141=VERTEX_POINT($,#423);
#142=EDGE_CURVE($,#119,#119,#110,.T.);
#143=EDGE_CURVE($,#120,#120,#111,.T.);
#144=EDGE_CURVE($,#121,#121,#112,.T.);
#145=EDGE_CURVE($,#122,#122,#113,.T.);
#146=EDGE_CURVE($,#123,#123,#114,.T.);
#147=EDGE_CURVE($,#124,#124,#115,.T.);
#148=EDGE_CURVE($,#125,#125,#116,.T.);
#149=EDGE_CURVE($,#126,#127,#37,.T.);
#150=EDGE_CURVE($,#127,#128,#38,.T.);
#151=EDGE_CURVE($,#128,#129,#39,.T.);
#152=EDGE_CURVE($,#129,#130,#40,.T.);
#153=EDGE_CURVE($,#130,#131,#41,.T.);
#154=EDGE_CURVE($,#131,#132,#42,.T.);
#155=EDGE_CURVE($,#132,#133,#43,.T.);
#156=EDGE_CURVE($,#133,#126,#44,.T.);
#157=EDGE_CURVE($,#134,#134,#117,.T.);
#158=EDGE_CURVE($,#135,#135,#118,.T.);
#159=EDGE_CURVE($,#132,#136,#13,.T.);
#160=EDGE_CURVE($,#137,#136,#14,.T.);
#161=EDGE_CURVE($,#137,#133,#15,.T.);
#162=EDGE_CURVE($,#131,#138,#16,.T.);
#163=EDGE_CURVE($,#136,#138,#17,.T.);
#164=EDGE_CURVE($,#129,#139,#18,.T.);
#165=EDGE_CURVE($,#138,#139,#19,.T.);
#166=EDGE_CURVE($,#128,#140,#20,.T.);
#167=EDGE_CURVE($,#139,#140,#21,.T.);
#168=EDGE_CURVE($,#127,#141,#22,.T.);
#169=EDGE_CURVE($,#140,#141,#23,.T.);
#170=EDGE_CURVE($,#141,#137,#24,.T.);
#171=ORIENTED_EDGE($,*,*,#142,.T.);
#172=ORIENTED_EDGE($,*,*,#143,.T.);
#173=ORIENTED_EDGE($,*,*,#144,.F.);
#174=ORIENTED_EDGE($,*,*,#142,.F.);
#175=ORIENTED_EDGE($,*,*,#143,.F.);
#176=ORIENTED_EDGE($,*,*,#145,.T.);
#177=ORIENTED_EDGE($,*,*,#146,.T.);
#178=ORIENTED_EDGE($,*,*,#147,.F.);
#179=ORIENTED_EDGE($,*,*,#148,.F.);
#180=ORIENTED_EDGE($,*,*,#149,.T.);
#181=ORIENTED_EDGE($,*,*,#150,.T.);
#182=ORIENTED_EDGE($,*,*,#151,.T.);
#183=ORIENTED_EDGE($,*,*,#152,.T.);
#184=ORIENTED_EDGE($,*,*,#153,.T.);
#185=ORIENTED_EDGE($,*,*,#154,.T.);
#186=ORIENTED_EDGE($,*,*,#155,.T.);
#187=ORIENTED_EDGE($,*,*,#156,.T.);
#188=ORIENTED_EDGE($,*,*,#157,.F.);
#189=ORIENTED_EDGE($,*,*,#146,.F.);
#190=ORIENTED_EDGE($,*,*,#145,.F.);
#191=ORIENTED_EDGE($,*,*,#158,.F.);
#192=ORIENTED_EDGE($,*,*,#155,.F.);
#193=ORIENTED_EDGE($,*,*,#159,.T.);
#194=ORIENTED_EDGE($,*,*,#160,.F.);
#195=ORIENTED_EDGE($,*,*,#161,.T.);
#196=ORIENTED_EDGE($,*,*,#154,.F.);
#197=ORIENTED_EDGE($,*,*,#162,.T.);
#198=ORIENTED_EDGE($,*,*,#163,.F.);
#199=ORIENTED_EDGE($,*,*,#159,.F.);
#200=ORIENTED_EDGE($,*,*,#152,.F.);
#201=ORIENTED_EDGE($,*,*,#164,.T.);
#202=ORIENTED_EDGE($,*,*,#165,.F.);
#203=ORIENTED_EDGE($,*,*,#162,.F.);
#204=ORIENTED_EDGE($,*,*,#153,.F.);
#205=ORIENTED_EDGE($,*,*,#151,.F.);
#206=ORIENTED_EDGE($,*,*,#166,.T.);
#207=ORIENTED_EDGE($,*,*,#167,.F.);
#208=ORIENTED_EDGE($,*,*,#164,.F.);
#209=ORIENTED_EDGE($,*,*,#150,.F.);
#210=ORIENTED_EDGE($,*,*,#168,.T.);
#211=ORIENTED_EDGE($,*,*,#169,.F.);
#212=ORIENTED_EDGE($,*,*,#166,.F.);
#213=ORIENTED_EDGE($,*,*,#156,.F.);
#214=ORIENTED_EDGE($,*,*,#161,.F.);
#215=ORIENTED_EDGE($,*,*,#170,.F.);
#216=ORIENTED_EDGE($,*,*,#168,.F.);
#217=ORIENTED_EDGE($,*,*,#149,.F.);
#218=ORIENTED_EDGE($,*,*,#147,.T.);
#219=ORIENTED_EDGE($,*,*,#144,.T.);
#220=ORIENTED_EDGE($,*,*,#157,.T.);
#221=ORIENTED_EDGE($,*,*,#170,.T.);
#222=ORIENTED_EDGE($,*,*,#160,.T.);
#223=ORIENTED_EDGE($,*,*,#163,.T.);
#224=ORIENTED_EDGE($,*,*,#165,.T.);
#225=ORIENTED_EDGE($,*,*,#167,.T.);
#226=ORIENTED_EDGE($,*,*,#169,.T.);
#227=ORIENTED_EDGE($,*,*,#158,.T.);
#228=ORIENTED_EDGE($,*,*,#148,.T.);
#229=CONICAL_SURFACE($,#253,2.5,0.785398163397448);
#230=CONICAL_SURFACE($,#265,1.44337567297406,1.0471975511966);
#231=CONICAL_SURFACE($,#266,6.85,0.785398163397448);
#232=CONICAL_SURFACE($,#268,6.85,0.785398163397448);
#233=ADVANCED_FACE($,(#67,#58),#229,.T.);
#234=ADVANCED_FACE($,(#68,#59),#55,.T.);
#235=ADVANCED_FACE($,(#69),#45,.T.);
#236=ADVANCED_FACE($,(#70,#60),#56,.T.);
#237=ADVANCED_FACE($,(#71,#61),#57,.T.);
#238=ADVANCED_FACE($,(#72),#230,.F.);
#239=ADVANCED_FACE($,(#73,#62),#231,.T.);
#240=ADVANCED_FACE($,(#74,#63),#232,.T.);
#241=ADVANCED_FACE($,(#75),#46,.T.);
#242=ADVANCED_FACE($,(#76),#47,.T.);
#243=ADVANCED_FACE($,(#77),#48,.T.);
#244=ADVANCED_FACE($,(#78),#49,.T.);
#245=ADVANCED_FACE($,(#79),#50,.T.);
#246=ADVANCED_FACE($,(#80),#51,.T.);
#247=ADVANCED_FACE($,(#81,#64),#52,.T.);
#248=ADVANCED_FACE($,(#82,#65),#53,.T.);
#249=ADVANCED_FACE($,(#83,#66),#54,.T.);
#250=CLOSED_SHELL($,(#233,#234,#235,#236,#237,#238,#239,#240,#241,#242,
#243,#244,#245,#246,#247,#248,#249));
#251=MANIFOLD_SOLID_BREP('8',#250);
#252=AXIS2_PLACEMENT_3D('placement',#345,#279,#280);
#253=AXIS2_PLACEMENT_3D($,#346,#281,#282);
#254=AXIS2_PLACEMENT_3D($,#348,#283,#284);
#255=AXIS2_PLACEMENT_3D($,#350,#285,#286);
#256=AXIS2_PLACEMENT_3D($,#351,#287,#288);
#257=AXIS2_PLACEMENT_3D($,#353,#289,#290);
#258=AXIS2_PLACEMENT_3D($,#354,#291,#292);
#259=AXIS2_PLACEMENT_3D($,#355,#293,#294);
#260=AXIS2_PLACEMENT_3D($,#357,#295,#296);
#261=AXIS2_PLACEMENT_3D($,#359,#297,#298);
#262=AXIS2_PLACEMENT_3D($,#360,#299,#300);
#263=AXIS2_PLACEMENT_3D($,#362,#301,#302);
#264=AXIS2_PLACEMENT_3D($,#364,#303,#304);
#265=AXIS2_PLACEMENT_3D($,#365,#305,#306);
#266=AXIS2_PLACEMENT_3D($,#398,#307,#308);
#267=AXIS2_PLACEMENT_3D($,#400,#309,#310);
#268=AXIS2_PLACEMENT_3D($,#401,#311,#312);
#269=AXIS2_PLACEMENT_3D($,#403,#313,#314);
#270=AXIS2_PLACEMENT_3D($,#404,#315,#316);
#271=AXIS2_PLACEMENT_3D($,#410,#320,#321);
#272=AXIS2_PLACEMENT_3D($,#414,#324,#325);
#273=AXIS2_PLACEMENT_3D($,#418,#328,#329);
#274=AXIS2_PLACEMENT_3D($,#422,#332,#333);
#275=AXIS2_PLACEMENT_3D($,#426,#336,#337);
#276=AXIS2_PLACEMENT_3D($,#428,#339,#340);
#277=AXIS2_PLACEMENT_3D($,#429,#341,#342);
#278=AXIS2_PLACEMENT_3D($,#430,#343,#344);
#279=DIRECTION('axis',(0.,0.,1.));
#280=DIRECTION('refdir',(1.,0.,0.));
#281=DIRECTION('center_axis',(1.,0.,0.));
#282=DIRECTION('ref_axis',(0.,0.,-1.));
#283=DIRECTION('center_axis',(-1.,0.,0.));
#284=DIRECTION('ref_axis',(0.,0.,-1.));
#285=DIRECTION('center_axis',(1.,0.,0.));
#286=DIRECTION('ref_axis',(0.,0.,-1.));
#287=DIRECTION('center_axis',(1.,0.,0.));
#288=DIRECTION('ref_axis',(0.,0.,-1.));
#289=DIRECTION('center_axis',(1.,0.,0.));
#290=DIRECTION('ref_axis',(0.,0.,-1.));
#291=DIRECTION('center_axis',(-1.,0.,0.));
#292=DIRECTION('ref_axis',(0.,0.,-1.));
#293=DIRECTION('center_axis',(1.,0.,0.));
#294=DIRECTION('ref_axis',(0.,0.,-1.));
#295=DIRECTION('center_axis',(1.,0.,0.));
#296=DIRECTION('ref_axis',(0.,0.,-1.));
#297=DIRECTION('center_axis',(-1.,0.,0.));
#298=DIRECTION('ref_axis',(0.,0.,-1.));
#299=DIRECTION('center_axis',(1.,0.,0.));
#300=DIRECTION('ref_axis',(0.,0.,-1.));
#301=DIRECTION('center_axis',(-1.,0.,0.));
#302=DIRECTION('ref_axis',(0.,0.,-1.));
#303=DIRECTION('center_axis',(1.,0.,0.));
#304=DIRECTION('ref_axis',(0.,0.,-1.));
#305=DIRECTION('center_axis',(1.,0.,0.));
#306=DIRECTION('ref_axis',(0.,0.,-1.));
#307=DIRECTION('center_axis',(-1.,0.,0.));
#308=DIRECTION('ref_axis',(0.,0.,1.));
#309=DIRECTION('center_axis',(1.,0.,0.));
#310=DIRECTION('ref_axis',(0.,0.,1.));
#311=DIRECTION('center_axis',(1.,0.,0.));
#312=DIRECTION('ref_axis',(0.,0.,1.));
#313=DIRECTION('center_axis',(-1.,0.,0.));
#314=DIRECTION('ref_axis',(0.,0.,1.));
#315=DIRECTION('center_axis',(0.,0.866025403784438,0.500000000000001));
#316=DIRECTION('ref_axis',(0.,0.500000000000001,-0.866025403784438));
#317=DIRECTION($,(1.,0.,0.));
#318=DIRECTION($,(0.,-0.500000000000001,0.866025403784438));
#319=DIRECTION($,(-1.,0.,0.));
#320=DIRECTION('center_axis',(0.,0.866025403784438,-0.500000000000001));
#321=DIRECTION('ref_axis',(0.,-0.500000000000001,-0.866025403784438));
#322=DIRECTION($,(1.,0.,0.));
#323=DIRECTION($,(0.,0.500000000000001,0.866025403784438));
#324=DIRECTION('center_axis',(0.,0.,-1.));
#325=DIRECTION('ref_axis',(0.,-1.,0.));
#326=DIRECTION($,(1.,0.,0.));
#327=DIRECTION($,(0.,1.,0.));
#328=DIRECTION('center_axis',(0.,-0.866025403784438,-0.500000000000001));
#329=DIRECTION('ref_axis',(0.,-0.500000000000001,0.866025403784438));
#330=DIRECTION($,(1.,0.,0.));
#331=DIRECTION($,(0.,0.500000000000001,-0.866025403784438));
#332=DIRECTION('center_axis',(0.,-0.866025403784438,0.500000000000001));
#333=DIRECTION('ref_axis',(0.,0.500000000000001,0.866025403784438));
#334=DIRECTION($,(1.,0.,0.));
#335=DIRECTION($,(0.,-0.500000000000001,-0.866025403784438));
#336=DIRECTION('center_axis',(0.,0.,1.));
#337=DIRECTION('ref_axis',(0.,1.,0.));
#338=DIRECTION($,(0.,-1.,0.));
#339=DIRECTION('center_axis',(-1.,0.,0.));
#340=DIRECTION('ref_axis',(0.,0.,-1.));
#341=DIRECTION('center_axis',(1.,0.,0.));
#342=DIRECTION('ref_axis',(0.,0.,1.));
#343=DIRECTION('center_axis',(-1.,0.,0.));
#344=DIRECTION('ref_axis',(0.,0.,-1.));
#345=CARTESIAN_POINT('',(0.,0.,0.));
#346=CARTESIAN_POINT('Origin',(23.25,30.,19.7));
#347=CARTESIAN_POINT('',(23.75,30.,22.7));
#348=CARTESIAN_POINT('Origin',(23.75,30.,19.7));
#349=CARTESIAN_POINT('',(22.75,30.,21.7));
#350=CARTESIAN_POINT('Origin',(22.75,30.,19.7));
#351=CARTESIAN_POINT('Origin',(30.5,30.,19.7));
#352=CARTESIAN_POINT('',(34.25,30.,22.7));
#353=CARTESIAN_POINT('Origin',(34.25,30.,19.7));
#354=CARTESIAN_POINT('Origin',(22.75,30.,19.7));
#355=CARTESIAN_POINT('Origin',(47.95,30.,19.7));
#356=CARTESIAN_POINT('',(46.25,30.,26.7));
#357=CARTESIAN_POINT('Origin',(46.25,30.,19.7));
#358=CARTESIAN_POINT('',(49.65,30.,26.7));
#359=CARTESIAN_POINT('Origin',(49.65,30.,19.7));
#360=CARTESIAN_POINT('Origin',(40.1,30.,19.7));
#361=CARTESIAN_POINT('',(34.25,30.,23.7));
#362=CARTESIAN_POINT('Origin',(34.25,30.,19.7));
#363=CARTESIAN_POINT('',(45.95,30.,23.7));
#364=CARTESIAN_POINT('Origin',(45.95,30.,19.7));
#365=CARTESIAN_POINT('Origin',(46.3403333333333,30.,19.7));
#366=CARTESIAN_POINT('',(46.9503756729741,30.,17.2));
#367=CARTESIAN_POINT('',(47.1736666666667,31.4433756729741,17.2));
#368=CARTESIAN_POINT('Ctrl Pts',(46.9503756729741,30.,17.2));
#369=CARTESIAN_POINT('Ctrl Pts',(46.9503756729741,30.6698729810778,17.2));
#370=CARTESIAN_POINT('Ctrl Pts',(47.1736666666667,31.443375672974,17.2));
#371=CARTESIAN_POINT('',(47.1736666666667,32.8867513459481,19.7));
#372=CARTESIAN_POINT('Ctrl Pts',(47.1736666666667,31.4433756729741,17.2));
#373=CARTESIAN_POINT('Ctrl Pts',(46.757,32.1650635094611,18.45));
#374=CARTESIAN_POINT('Ctrl Pts',(47.1736666666667,32.8867513459481,19.7));
#375=CARTESIAN_POINT('',(47.1736666666667,31.4433756729741,22.2));
#376=CARTESIAN_POINT('Ctrl Pts',(47.1736666666667,32.8867513459481,19.7));
#377=CARTESIAN_POINT('Ctrl Pts',(46.757,32.1650635094611,20.95));
#378=CARTESIAN_POINT('Ctrl Pts',(47.1736666666667,31.4433756729741,22.2));
#379=CARTESIAN_POINT('',(46.9503756729741,30.,22.2));
#380=CARTESIAN_POINT('Ctrl Pts',(47.1736666666667,31.443375672974,22.2));
#381=CARTESIAN_POINT('Ctrl Pts',(46.9503756729741,30.6698729810778,22.2));
#382=CARTESIAN_POINT('Ctrl Pts',(46.9503756729741,30.,22.2));
#383=CARTESIAN_POINT('',(47.1736666666667,28.5566243270259,22.2));
#384=CARTESIAN_POINT('Ctrl Pts',(46.9503756729741,30.,22.2));
#385=CARTESIAN_POINT('Ctrl Pts',(46.9503756729741,29.3301270189222,22.2));
#386=CARTESIAN_POINT('Ctrl Pts',(47.1736666666667,28.556624327026,22.2));
#387=CARTESIAN_POINT('',(47.1736666666667,27.1132486540519,19.7));
#388=CARTESIAN_POINT('Ctrl Pts',(47.1736666666667,28.5566243270259,22.2));
#389=CARTESIAN_POINT('Ctrl Pts',(46.757,27.8349364905389,20.95));
#390=CARTESIAN_POINT('Ctrl Pts',(47.1736666666667,27.1132486540519,19.7));
#391=CARTESIAN_POINT('',(47.1736666666667,28.5566243270259,17.2));
#392=CARTESIAN_POINT('Ctrl Pts',(47.1736666666667,27.1132486540519,19.7));
#393=CARTESIAN_POINT('Ctrl Pts',(46.757,27.8349364905389,18.45));
#394=CARTESIAN_POINT('Ctrl Pts',(47.1736666666667,28.5566243270259,17.2));
#395=CARTESIAN_POINT('Ctrl Pts',(47.1736666666667,28.556624327026,17.2));
#396=CARTESIAN_POINT('Ctrl Pts',(46.9503756729741,29.3301270189222,17.2));
#397=CARTESIAN_POINT('Ctrl Pts',(46.9503756729741,30.,17.2));
#398=CARTESIAN_POINT('Origin',(49.8,30.,19.7));
#399=CARTESIAN_POINT('',(49.95,30.,13.));
#400=CARTESIAN_POINT('Origin',(49.95,30.,19.7));
#401=CARTESIAN_POINT('Origin',(46.1,30.,19.7));
#402=CARTESIAN_POINT('',(45.95,30.,13.));
#403=CARTESIAN_POINT('Origin',(45.95,30.,19.7));
#404=CARTESIAN_POINT('Origin',(49.95,28.5566243270259,17.2));
#405=CARTESIAN_POINT('',(49.95,27.1132486540519,19.7));
#406=CARTESIAN_POINT($,(48.5618333333333,27.1132486540519,19.7));
#407=CARTESIAN_POINT('',(49.95,28.5566243270259,17.2));
#408=CARTESIAN_POINT($,(49.95,28.5566243270259,17.2));
#409=CARTESIAN_POINT($,(48.5618333333333,28.5566243270259,17.2));
#410=CARTESIAN_POINT('Origin',(49.95,27.1132486540519,19.7));
#411=CARTESIAN_POINT('',(49.95,28.5566243270259,22.2));
#412=CARTESIAN_POINT($,(48.5618333333333,28.5566243270259,22.2));
#413=CARTESIAN_POINT($,(49.95,27.1132486540519,19.7));
#414=CARTESIAN_POINT('Origin',(49.95,28.5566243270259,22.2));
#415=CARTESIAN_POINT('',(49.95,31.4433756729741,22.2));
#416=CARTESIAN_POINT($,(48.5618333333333,31.4433756729741,22.2));
#417=CARTESIAN_POINT($,(49.95,28.5566243270259,22.2));
#418=CARTESIAN_POINT('Origin',(49.95,31.4433756729741,22.2));
#419=CARTESIAN_POINT('',(49.95,32.8867513459481,19.7));
#420=CARTESIAN_POINT($,(48.5618333333333,32.8867513459481,19.7));
#421=CARTESIAN_POINT($,(49.95,31.4433756729741,22.2));
#422=CARTESIAN_POINT('Origin',(49.95,32.8867513459481,19.7));
#423=CARTESIAN_POINT('',(49.95,31.4433756729741,17.2));
#424=CARTESIAN_POINT($,(48.5618333333333,31.4433756729741,17.2));
#425=CARTESIAN_POINT($,(49.95,32.8867513459481,19.7));
#426=CARTESIAN_POINT('Origin',(49.95,31.4433756729741,17.2));
#427=CARTESIAN_POINT($,(49.95,31.4433756729741,17.2));
#428=CARTESIAN_POINT('Origin',(34.25,30.,19.7));
#429=CARTESIAN_POINT('Origin',(49.95,30.,19.7));
#430=CARTESIAN_POINT('Origin',(45.95,30.,19.7));
#431=UNCERTAINTY_MEASURE_WITH_UNIT(LENGTH_MEASURE(0.01),#433,
'DISTANCE_ACCURACY_VALUE',
'Maximum model space distance between geometric entities at asserted c
onnectivities');
#432=(
GEOMETRIC_REPRESENTATION_CONTEXT(3)
GLOBAL_UNCERTAINTY_ASSIGNED_CONTEXT((#431))
GLOBAL_UNIT_ASSIGNED_CONTEXT((#433,#435,#434))
REPRESENTATION_CONTEXT('','3D')
);
#433=(
LENGTH_UNIT()
NAMED_UNIT(*)
SI_UNIT(.MILLI.,.METRE.)
);
#434=(
NAMED_UNIT(*)
SI_UNIT($,.STERADIAN.)
SOLID_ANGLE_UNIT()
);
#435=(
NAMED_UNIT(*)
PLANE_ANGLE_UNIT()
SI_UNIT($,.RADIAN.)
);
#436=SHAPE_DEFINITION_REPRESENTATION(#437,#438);
#437=PRODUCT_DEFINITION_SHAPE('',$,#440);
#438=SHAPE_REPRESENTATION('',(#252),#432);
#439=PRODUCT_DEFINITION_CONTEXT('3D Mechanical Parts',#443,'design');
#440=PRODUCT_DEFINITION('11228_KriTec_Bolzen_8_D10_zentrisch',
'11228_KriTec_Bolzen_8_D10_zentrisch',#441,#439);
#441=PRODUCT_DEFINITION_FORMATION('',$,#445);
#442=APPLICATION_PROTOCOL_DEFINITION('international standard',
'automotive_design',2009,#443);
#443=APPLICATION_CONTEXT(
'Core Data for Automotive Mechanical Design Process');
#444=PRODUCT_CONTEXT('3D Mechanical Parts',#443,'mechanical');
#445=PRODUCT('11228_KriTec_Bolzen_8_D10_zentrisch',
'11228_KriTec_Bolzen_8_D10_zentrisch',$,(#444));
#446=PRESENTATION_STYLE_ASSIGNMENT((#447));
#447=SURFACE_STYLE_USAGE(.BOTH.,#448);
#448=SURFACE_SIDE_STYLE($,(#449));
#449=SURFACE_STYLE_FILL_AREA(#450);
#450=FILL_AREA_STYLE($,(#451));
#451=FILL_AREA_STYLE_COLOUR($,#452);
#452=COLOUR_RGB('',0.501960784313725,0.501960784313725,0.501960784313725);
ENDSEC;
END-ISO-10303-21;
