ISO-10303-21;
HEADER;
/* Generated by software containing ST-Developer
 * from STEP Tools, Inc. (www.steptools.com) 
 */

FILE_DESCRIPTION(
/* description */ (''),
/* implementation_level */ '2;1');

FILE_NAME(
/* name */ 
'S:\\Bilder_neu\\11127_KriTec_Bolzen_8_D10_exzentrisch\\Inventordateie
n\\11227_KriTec_Bolzen_8_D10_exzentrisch.stp',
/* time_stamp */ '2014-05-07T16:44:42+02:00',
/* author */ ('kostic'),
/* organization */ (''),
/* preprocessor_version */ 'ST-DEVELOPER v15.2',
/* originating_system */ 'Autodesk Inventor 2014',
/* authorisation */ '');

FILE_SCHEMA (('AUTOMOTIVE_DESIGN { 1 0 10303 214 3 1 1 }'));
ENDSEC;

DATA;
#10=SHAPE_REPRESENTATION_RELATIONSHIP('SRR','None',#666,#11);
#11=ADVANCED_BREP_SHAPE_REPRESENTATION($,(#380),#660);
#12=STYLED_ITEM($,(#674),#380);
#13=LINE($,#631,#25);
#14=LINE($,#633,#26);
#15=LINE($,#634,#27);
#16=LINE($,#637,#28);
#17=LINE($,#638,#29);
#18=LINE($,#641,#30);
#19=LINE($,#642,#31);
#20=LINE($,#645,#32);
#21=LINE($,#646,#33);
#22=LINE($,#649,#34);
#23=LINE($,#650,#35);
#24=LINE($,#652,#36);
#25=VECTOR($,#506,2.);
#26=VECTOR($,#507,1.73205080756891);
#27=VECTOR($,#508,2.);
#28=VECTOR($,#511,1.73205080756891);
#29=VECTOR($,#512,2.);
#30=VECTOR($,#515,1.7320508075688);
#31=VECTOR($,#516,2.);
#32=VECTOR($,#519,1.73205080756891);
#33=VECTOR($,#520,2.);
#34=VECTOR($,#523,1.73205080756891);
#35=VECTOR($,#524,2.);
#36=VECTOR($,#527,1.7320508075688);
#37=PLANE($,#418);
#38=PLANE($,#419);
#39=PLANE($,#420);
#40=PLANE($,#421);
#41=PLANE($,#422);
#42=PLANE($,#423);
#43=PLANE($,#424);
#44=PLANE($,#425);
#45=PLANE($,#426);
#46=PLANE($,#427);
#47=PLANE($,#428);
#48=PLANE($,#429);
#49=(
BOUNDED_CURVE()
B_SPLINE_CURVE(2,(#592,#593,#594),.UNSPECIFIED.,.F.,.F.)
B_SPLINE_CURVE_WITH_KNOTS((3,3),(0.876327103558444,1.75265420711688),
 .UNSPECIFIED.)
CURVE()
GEOMETRIC_REPRESENTATION_ITEM()
RATIONAL_B_SPLINE_CURVE((1.0773502691896,1.0773502691896,1.))
REPRESENTATION_ITEM($)
);
#50=(
BOUNDED_CURVE()
B_SPLINE_CURVE(2,(#596,#597,#598),.UNSPECIFIED.,.F.,.F.)
B_SPLINE_CURVE_WITH_KNOTS((3,3),(0.,1.75265420711688),.UNSPECIFIED.)
CURVE()
GEOMETRIC_REPRESENTATION_ITEM()
RATIONAL_B_SPLINE_CURVE((1.,1.15470053837921,1.))
REPRESENTATION_ITEM($)
);
#51=(
BOUNDED_CURVE()
B_SPLINE_CURVE(2,(#600,#601,#602),.UNSPECIFIED.,.F.,.F.)
B_SPLINE_CURVE_WITH_KNOTS((3,3),(0.,1.75265420711688),.UNSPECIFIED.)
CURVE()
GEOMETRIC_REPRESENTATION_ITEM()
RATIONAL_B_SPLINE_CURVE((1.,1.15470053837921,1.))
REPRESENTATION_ITEM($)
);
#52=(
BOUNDED_CURVE()
B_SPLINE_CURVE(2,(#604,#605,#606),.UNSPECIFIED.,.F.,.F.)
B_SPLINE_CURVE_WITH_KNOTS((3,3),(0.,0.876327103558443),.UNSPECIFIED.)
CURVE()
GEOMETRIC_REPRESENTATION_ITEM()
RATIONAL_B_SPLINE_CURVE((1.,1.07735026918961,1.07735026918961))
REPRESENTATION_ITEM($)
);
#53=(
BOUNDED_CURVE()
B_SPLINE_CURVE(2,(#608,#609,#610),.UNSPECIFIED.,.F.,.F.)
B_SPLINE_CURVE_WITH_KNOTS((3,3),(0.876327103558443,1.75265420711688),
 .UNSPECIFIED.)
CURVE()
GEOMETRIC_REPRESENTATION_ITEM()
RATIONAL_B_SPLINE_CURVE((1.07735026918961,1.0773502691896,1.))
REPRESENTATION_ITEM($)
);
#54=(
BOUNDED_CURVE()
B_SPLINE_CURVE(2,(#612,#613,#614),.UNSPECIFIED.,.F.,.F.)
B_SPLINE_CURVE_WITH_KNOTS((3,3),(0.,1.75265420711688),.UNSPECIFIED.)
CURVE()
GEOMETRIC_REPRESENTATION_ITEM()
RATIONAL_B_SPLINE_CURVE((1.,1.15470053837921,1.))
REPRESENTATION_ITEM($)
);
#55=(
BOUNDED_CURVE()
B_SPLINE_CURVE(2,(#616,#617,#618),.UNSPECIFIED.,.F.,.F.)
B_SPLINE_CURVE_WITH_KNOTS((3,3),(0.,1.75265420711688),.UNSPECIFIED.)
CURVE()
GEOMETRIC_REPRESENTATION_ITEM()
RATIONAL_B_SPLINE_CURVE((1.,1.15470053837921,1.))
REPRESENTATION_ITEM($)
);
#56=(
BOUNDED_CURVE()
B_SPLINE_CURVE(2,(#619,#620,#621),.UNSPECIFIED.,.F.,.F.)
B_SPLINE_CURVE_WITH_KNOTS((3,3),(0.,0.876327103558444),.UNSPECIFIED.)
CURVE()
GEOMETRIC_REPRESENTATION_ITEM()
RATIONAL_B_SPLINE_CURVE((1.,1.07735026918961,1.0773502691896))
REPRESENTATION_ITEM($)
);
#57=CYLINDRICAL_SURFACE($,#385,7.);
#58=CYLINDRICAL_SURFACE($,#392,1.);
#59=CYLINDRICAL_SURFACE($,#395,1.);
#60=CYLINDRICAL_SURFACE($,#398,1.);
#61=CYLINDRICAL_SURFACE($,#401,1.);
#62=CYLINDRICAL_SURFACE($,#404,4.);
#63=CYLINDRICAL_SURFACE($,#407,3.);
#64=CYLINDRICAL_SURFACE($,#413,3.);
#65=FACE_BOUND($,#116,.T.);
#66=FACE_BOUND($,#118,.T.);
#67=FACE_BOUND($,#120,.T.);
#68=FACE_BOUND($,#122,.T.);
#69=FACE_BOUND($,#124,.T.);
#70=FACE_BOUND($,#126,.T.);
#71=FACE_BOUND($,#128,.T.);
#72=FACE_BOUND($,#130,.T.);
#73=FACE_BOUND($,#132,.T.);
#74=FACE_BOUND($,#134,.T.);
#75=FACE_BOUND($,#136,.T.);
#76=FACE_BOUND($,#139,.T.);
#77=FACE_BOUND($,#141,.T.);
#78=FACE_BOUND($,#152,.T.);
#79=FACE_BOUND($,#154,.T.);
#80=FACE_BOUND($,#155,.T.);
#81=FACE_BOUND($,#156,.T.);
#82=FACE_BOUND($,#157,.T.);
#83=FACE_BOUND($,#158,.T.);
#84=FACE_BOUND($,#160,.T.);
#85=FACE_BOUND($,#161,.T.);
#86=FACE_BOUND($,#162,.T.);
#87=FACE_BOUND($,#163,.T.);
#88=FACE_BOUND($,#164,.T.);
#89=FACE_OUTER_BOUND($,#115,.T.);
#90=FACE_OUTER_BOUND($,#117,.T.);
#91=FACE_OUTER_BOUND($,#119,.T.);
#92=FACE_OUTER_BOUND($,#121,.T.);
#93=FACE_OUTER_BOUND($,#123,.T.);
#94=FACE_OUTER_BOUND($,#125,.T.);
#95=FACE_OUTER_BOUND($,#127,.T.);
#96=FACE_OUTER_BOUND($,#129,.T.);
#97=FACE_OUTER_BOUND($,#131,.T.);
#98=FACE_OUTER_BOUND($,#133,.T.);
#99=FACE_OUTER_BOUND($,#135,.T.);
#100=FACE_OUTER_BOUND($,#137,.T.);
#101=FACE_OUTER_BOUND($,#138,.T.);
#102=FACE_OUTER_BOUND($,#140,.T.);
#103=FACE_OUTER_BOUND($,#142,.T.);
#104=FACE_OUTER_BOUND($,#143,.T.);
#105=FACE_OUTER_BOUND($,#144,.T.);
#106=FACE_OUTER_BOUND($,#145,.T.);
#107=FACE_OUTER_BOUND($,#146,.T.);
#108=FACE_OUTER_BOUND($,#147,.T.);
#109=FACE_OUTER_BOUND($,#148,.T.);
#110=FACE_OUTER_BOUND($,#149,.T.);
#111=FACE_OUTER_BOUND($,#150,.T.);
#112=FACE_OUTER_BOUND($,#151,.T.);
#113=FACE_OUTER_BOUND($,#153,.T.);
#114=FACE_OUTER_BOUND($,#159,.T.);
#115=EDGE_LOOP($,(#263));
#116=EDGE_LOOP($,(#264));
#117=EDGE_LOOP($,(#265));
#118=EDGE_LOOP($,(#266));
#119=EDGE_LOOP($,(#267));
#120=EDGE_LOOP($,(#268));
#121=EDGE_LOOP($,(#269));
#122=EDGE_LOOP($,(#270));
#123=EDGE_LOOP($,(#271));
#124=EDGE_LOOP($,(#272));
#125=EDGE_LOOP($,(#273));
#126=EDGE_LOOP($,(#274));
#127=EDGE_LOOP($,(#275));
#128=EDGE_LOOP($,(#276));
#129=EDGE_LOOP($,(#277));
#130=EDGE_LOOP($,(#278));
#131=EDGE_LOOP($,(#279));
#132=EDGE_LOOP($,(#280));
#133=EDGE_LOOP($,(#281));
#134=EDGE_LOOP($,(#282));
#135=EDGE_LOOP($,(#283));
#136=EDGE_LOOP($,(#284));
#137=EDGE_LOOP($,(#285,#286,#287,#288,#289,#290,#291,#292));
#138=EDGE_LOOP($,(#293));
#139=EDGE_LOOP($,(#294));
#140=EDGE_LOOP($,(#295));
#141=EDGE_LOOP($,(#296));
#142=EDGE_LOOP($,(#297,#298,#299,#300));
#143=EDGE_LOOP($,(#301,#302,#303,#304));
#144=EDGE_LOOP($,(#305,#306,#307,#308,#309));
#145=EDGE_LOOP($,(#310,#311,#312,#313));
#146=EDGE_LOOP($,(#314,#315,#316,#317));
#147=EDGE_LOOP($,(#318,#319,#320,#321,#322));
#148=EDGE_LOOP($,(#323));
#149=EDGE_LOOP($,(#324,#325));
#150=EDGE_LOOP($,(#326,#327));
#151=EDGE_LOOP($,(#328));
#152=EDGE_LOOP($,(#329,#330,#331,#332,#333,#334));
#153=EDGE_LOOP($,(#335));
#154=EDGE_LOOP($,(#336));
#155=EDGE_LOOP($,(#337));
#156=EDGE_LOOP($,(#338));
#157=EDGE_LOOP($,(#339));
#158=EDGE_LOOP($,(#340));
#159=EDGE_LOOP($,(#341));
#160=EDGE_LOOP($,(#342));
#161=EDGE_LOOP($,(#343));
#162=EDGE_LOOP($,(#344));
#163=EDGE_LOOP($,(#345));
#164=EDGE_LOOP($,(#346));
#165=CIRCLE($,#383,3.);
#166=CIRCLE($,#384,2.85);
#167=CIRCLE($,#386,7.);
#168=CIRCLE($,#387,7.);
#169=CIRCLE($,#389,6.7);
#170=CIRCLE($,#391,6.7);
#171=CIRCLE($,#393,1.);
#172=CIRCLE($,#394,1.);
#173=CIRCLE($,#396,1.);
#174=CIRCLE($,#397,1.);
#175=CIRCLE($,#399,1.);
#176=CIRCLE($,#400,1.);
#177=CIRCLE($,#402,1.);
#178=CIRCLE($,#403,1.);
#179=CIRCLE($,#405,4.);
#180=CIRCLE($,#406,4.);
#181=CIRCLE($,#408,3.);
#182=CIRCLE($,#409,3.);
#183=CIRCLE($,#411,2.570585);
#184=CIRCLE($,#414,3.);
#185=CIRCLE($,#415,3.);
#186=CIRCLE($,#417,2.7);
#187=VERTEX_POINT($,#542);
#188=VERTEX_POINT($,#544);
#189=VERTEX_POINT($,#547);
#190=VERTEX_POINT($,#549);
#191=VERTEX_POINT($,#552);
#192=VERTEX_POINT($,#555);
#193=VERTEX_POINT($,#558);
#194=VERTEX_POINT($,#560);
#195=VERTEX_POINT($,#563);
#196=VERTEX_POINT($,#565);
#197=VERTEX_POINT($,#568);
#198=VERTEX_POINT($,#570);
#199=VERTEX_POINT($,#573);
#200=VERTEX_POINT($,#575);
#201=VERTEX_POINT($,#578);
#202=VERTEX_POINT($,#580);
#203=VERTEX_POINT($,#583);
#204=VERTEX_POINT($,#587);
#205=VERTEX_POINT($,#590);
#206=VERTEX_POINT($,#591);
#207=VERTEX_POINT($,#595);
#208=VERTEX_POINT($,#599);
#209=VERTEX_POINT($,#603);
#210=VERTEX_POINT($,#607);
#211=VERTEX_POINT($,#611);
#212=VERTEX_POINT($,#615);
#213=VERTEX_POINT($,#624);
#214=VERTEX_POINT($,#627);
#215=VERTEX_POINT($,#630);
#216=VERTEX_POINT($,#632);
#217=VERTEX_POINT($,#636);
#218=VERTEX_POINT($,#640);
#219=VERTEX_POINT($,#644);
#220=VERTEX_POINT($,#648);
#221=EDGE_CURVE($,#187,#187,#165,.T.);
#222=EDGE_CURVE($,#188,#188,#166,.T.);
#223=EDGE_CURVE($,#189,#189,#167,.T.);
#224=EDGE_CURVE($,#190,#190,#168,.T.);
#225=EDGE_CURVE($,#191,#191,#169,.T.);
#226=EDGE_CURVE($,#192,#192,#170,.T.);
#227=EDGE_CURVE($,#193,#193,#171,.T.);
#228=EDGE_CURVE($,#194,#194,#172,.T.);
#229=EDGE_CURVE($,#195,#195,#173,.T.);
#230=EDGE_CURVE($,#196,#196,#174,.T.);
#231=EDGE_CURVE($,#197,#197,#175,.T.);
#232=EDGE_CURVE($,#198,#198,#176,.T.);
#233=EDGE_CURVE($,#199,#199,#177,.T.);
#234=EDGE_CURVE($,#200,#200,#178,.T.);
#235=EDGE_CURVE($,#201,#201,#179,.T.);
#236=EDGE_CURVE($,#202,#202,#180,.T.);
#237=EDGE_CURVE($,#203,#203,#181,.T.);
#238=EDGE_CURVE($,#201,#201,#182,.T.);
#239=EDGE_CURVE($,#204,#204,#183,.T.);
#240=EDGE_CURVE($,#205,#206,#49,.T.);
#241=EDGE_CURVE($,#206,#207,#50,.T.);
#242=EDGE_CURVE($,#207,#208,#51,.T.);
#243=EDGE_CURVE($,#208,#209,#52,.T.);
#244=EDGE_CURVE($,#209,#210,#53,.T.);
#245=EDGE_CURVE($,#210,#211,#54,.T.);
#246=EDGE_CURVE($,#211,#212,#55,.T.);
#247=EDGE_CURVE($,#212,#205,#56,.T.);
#248=EDGE_CURVE($,#202,#202,#184,.T.);
#249=EDGE_CURVE($,#213,#213,#185,.T.);
#250=EDGE_CURVE($,#214,#214,#186,.T.);
#251=EDGE_CURVE($,#206,#215,#13,.T.);
#252=EDGE_CURVE($,#215,#216,#14,.T.);
#253=EDGE_CURVE($,#216,#207,#15,.T.);
#254=EDGE_CURVE($,#216,#217,#16,.T.);
#255=EDGE_CURVE($,#217,#208,#17,.T.);
#256=EDGE_CURVE($,#217,#218,#18,.T.);
#257=EDGE_CURVE($,#218,#210,#19,.T.);
#258=EDGE_CURVE($,#218,#219,#20,.T.);
#259=EDGE_CURVE($,#219,#211,#21,.T.);
#260=EDGE_CURVE($,#219,#220,#22,.T.);
#261=EDGE_CURVE($,#220,#212,#23,.T.);
#262=EDGE_CURVE($,#220,#215,#24,.T.);
#263=ORIENTED_EDGE($,*,*,#221,.T.);
#264=ORIENTED_EDGE($,*,*,#222,.T.);
#265=ORIENTED_EDGE($,*,*,#223,.T.);
#266=ORIENTED_EDGE($,*,*,#224,.T.);
#267=ORIENTED_EDGE($,*,*,#225,.F.);
#268=ORIENTED_EDGE($,*,*,#223,.F.);
#269=ORIENTED_EDGE($,*,*,#226,.F.);
#270=ORIENTED_EDGE($,*,*,#224,.F.);
#271=ORIENTED_EDGE($,*,*,#227,.F.);
#272=ORIENTED_EDGE($,*,*,#228,.F.);
#273=ORIENTED_EDGE($,*,*,#229,.F.);
#274=ORIENTED_EDGE($,*,*,#230,.F.);
#275=ORIENTED_EDGE($,*,*,#231,.F.);
#276=ORIENTED_EDGE($,*,*,#232,.F.);
#277=ORIENTED_EDGE($,*,*,#233,.F.);
#278=ORIENTED_EDGE($,*,*,#234,.F.);
#279=ORIENTED_EDGE($,*,*,#235,.F.);
#280=ORIENTED_EDGE($,*,*,#236,.F.);
#281=ORIENTED_EDGE($,*,*,#237,.T.);
#282=ORIENTED_EDGE($,*,*,#238,.F.);
#283=ORIENTED_EDGE($,*,*,#239,.F.);
#284=ORIENTED_EDGE($,*,*,#237,.F.);
#285=ORIENTED_EDGE($,*,*,#240,.T.);
#286=ORIENTED_EDGE($,*,*,#241,.T.);
#287=ORIENTED_EDGE($,*,*,#242,.T.);
#288=ORIENTED_EDGE($,*,*,#243,.T.);
#289=ORIENTED_EDGE($,*,*,#244,.T.);
#290=ORIENTED_EDGE($,*,*,#245,.T.);
#291=ORIENTED_EDGE($,*,*,#246,.T.);
#292=ORIENTED_EDGE($,*,*,#247,.T.);
#293=ORIENTED_EDGE($,*,*,#248,.F.);
#294=ORIENTED_EDGE($,*,*,#249,.F.);
#295=ORIENTED_EDGE($,*,*,#250,.F.);
#296=ORIENTED_EDGE($,*,*,#222,.F.);
#297=ORIENTED_EDGE($,*,*,#241,.F.);
#298=ORIENTED_EDGE($,*,*,#251,.T.);
#299=ORIENTED_EDGE($,*,*,#252,.T.);
#300=ORIENTED_EDGE($,*,*,#253,.T.);
#301=ORIENTED_EDGE($,*,*,#242,.F.);
#302=ORIENTED_EDGE($,*,*,#253,.F.);
#303=ORIENTED_EDGE($,*,*,#254,.T.);
#304=ORIENTED_EDGE($,*,*,#255,.T.);
#305=ORIENTED_EDGE($,*,*,#243,.F.);
#306=ORIENTED_EDGE($,*,*,#255,.F.);
#307=ORIENTED_EDGE($,*,*,#256,.T.);
#308=ORIENTED_EDGE($,*,*,#257,.T.);
#309=ORIENTED_EDGE($,*,*,#244,.F.);
#310=ORIENTED_EDGE($,*,*,#245,.F.);
#311=ORIENTED_EDGE($,*,*,#257,.F.);
#312=ORIENTED_EDGE($,*,*,#258,.T.);
#313=ORIENTED_EDGE($,*,*,#259,.T.);
#314=ORIENTED_EDGE($,*,*,#246,.F.);
#315=ORIENTED_EDGE($,*,*,#259,.F.);
#316=ORIENTED_EDGE($,*,*,#260,.T.);
#317=ORIENTED_EDGE($,*,*,#261,.T.);
#318=ORIENTED_EDGE($,*,*,#247,.F.);
#319=ORIENTED_EDGE($,*,*,#261,.F.);
#320=ORIENTED_EDGE($,*,*,#262,.T.);
#321=ORIENTED_EDGE($,*,*,#251,.F.);
#322=ORIENTED_EDGE($,*,*,#240,.F.);
#323=ORIENTED_EDGE($,*,*,#239,.T.);
#324=ORIENTED_EDGE($,*,*,#235,.T.);
#325=ORIENTED_EDGE($,*,*,#238,.T.);
#326=ORIENTED_EDGE($,*,*,#236,.T.);
#327=ORIENTED_EDGE($,*,*,#248,.T.);
#328=ORIENTED_EDGE($,*,*,#250,.T.);
#329=ORIENTED_EDGE($,*,*,#262,.F.);
#330=ORIENTED_EDGE($,*,*,#260,.F.);
#331=ORIENTED_EDGE($,*,*,#258,.F.);
#332=ORIENTED_EDGE($,*,*,#256,.F.);
#333=ORIENTED_EDGE($,*,*,#254,.F.);
#334=ORIENTED_EDGE($,*,*,#252,.F.);
#335=ORIENTED_EDGE($,*,*,#226,.T.);
#336=ORIENTED_EDGE($,*,*,#233,.T.);
#337=ORIENTED_EDGE($,*,*,#231,.T.);
#338=ORIENTED_EDGE($,*,*,#229,.T.);
#339=ORIENTED_EDGE($,*,*,#227,.T.);
#340=ORIENTED_EDGE($,*,*,#221,.F.);
#341=ORIENTED_EDGE($,*,*,#225,.T.);
#342=ORIENTED_EDGE($,*,*,#234,.T.);
#343=ORIENTED_EDGE($,*,*,#232,.T.);
#344=ORIENTED_EDGE($,*,*,#230,.T.);
#345=ORIENTED_EDGE($,*,*,#228,.T.);
#346=ORIENTED_EDGE($,*,*,#249,.T.);
#347=CONICAL_SURFACE($,#382,2.7293670625,0.785398163397448);
#348=CONICAL_SURFACE($,#388,6.85,0.785398163397448);
#349=CONICAL_SURFACE($,#390,6.85,0.785398163397448);
#350=CONICAL_SURFACE($,#410,2.7852925,0.785398163397448);
#351=CONICAL_SURFACE($,#412,0.866025403784439,1.0471975511966);
#352=CONICAL_SURFACE($,#416,2.85,0.785398163397448);
#353=ADVANCED_FACE($,(#89,#65),#347,.F.);
#354=ADVANCED_FACE($,(#90,#66),#57,.T.);
#355=ADVANCED_FACE($,(#91,#67),#348,.T.);
#356=ADVANCED_FACE($,(#92,#68),#349,.T.);
#357=ADVANCED_FACE($,(#93,#69),#58,.F.);
#358=ADVANCED_FACE($,(#94,#70),#59,.F.);
#359=ADVANCED_FACE($,(#95,#71),#60,.F.);
#360=ADVANCED_FACE($,(#96,#72),#61,.F.);
#361=ADVANCED_FACE($,(#97,#73),#62,.T.);
#362=ADVANCED_FACE($,(#98,#74),#63,.T.);
#363=ADVANCED_FACE($,(#99,#75),#350,.T.);
#364=ADVANCED_FACE($,(#100),#351,.F.);
#365=ADVANCED_FACE($,(#101,#76),#64,.T.);
#366=ADVANCED_FACE($,(#102,#77),#352,.T.);
#367=ADVANCED_FACE($,(#103),#37,.T.);
#368=ADVANCED_FACE($,(#104),#38,.T.);
#369=ADVANCED_FACE($,(#105),#39,.T.);
#370=ADVANCED_FACE($,(#106),#40,.T.);
#371=ADVANCED_FACE($,(#107),#41,.T.);
#372=ADVANCED_FACE($,(#108),#42,.T.);
#373=ADVANCED_FACE($,(#109),#43,.T.);
#374=ADVANCED_FACE($,(#110),#44,.T.);
#375=ADVANCED_FACE($,(#111),#45,.T.);
#376=ADVANCED_FACE($,(#112,#78),#46,.T.);
#377=ADVANCED_FACE($,(#113,#79,#80,#81,#82,#83),#47,.T.);
#378=ADVANCED_FACE($,(#114,#84,#85,#86,#87,#88),#48,.T.);
#379=CLOSED_SHELL($,(#353,#354,#355,#356,#357,#358,#359,#360,#361,#362,
#363,#364,#365,#366,#367,#368,#369,#370,#371,#372,#373,#374,#375,#376,#377,
#378));
#380=MANIFOLD_SOLID_BREP('8',#379);
#381=AXIS2_PLACEMENT_3D('placement',#540,#430,#431);
#382=AXIS2_PLACEMENT_3D($,#541,#432,#433);
#383=AXIS2_PLACEMENT_3D($,#543,#434,#435);
#384=AXIS2_PLACEMENT_3D($,#545,#436,#437);
#385=AXIS2_PLACEMENT_3D($,#546,#438,#439);
#386=AXIS2_PLACEMENT_3D($,#548,#440,#441);
#387=AXIS2_PLACEMENT_3D($,#550,#442,#443);
#388=AXIS2_PLACEMENT_3D($,#551,#444,#445);
#389=AXIS2_PLACEMENT_3D($,#553,#446,#447);
#390=AXIS2_PLACEMENT_3D($,#554,#448,#449);
#391=AXIS2_PLACEMENT_3D($,#556,#450,#451);
#392=AXIS2_PLACEMENT_3D($,#557,#452,#453);
#393=AXIS2_PLACEMENT_3D($,#559,#454,#455);
#394=AXIS2_PLACEMENT_3D($,#561,#456,#457);
#395=AXIS2_PLACEMENT_3D($,#562,#458,#459);
#396=AXIS2_PLACEMENT_3D($,#564,#460,#461);
#397=AXIS2_PLACEMENT_3D($,#566,#462,#463);
#398=AXIS2_PLACEMENT_3D($,#567,#464,#465);
#399=AXIS2_PLACEMENT_3D($,#569,#466,#467);
#400=AXIS2_PLACEMENT_3D($,#571,#468,#469);
#401=AXIS2_PLACEMENT_3D($,#572,#470,#471);
#402=AXIS2_PLACEMENT_3D($,#574,#472,#473);
#403=AXIS2_PLACEMENT_3D($,#576,#474,#475);
#404=AXIS2_PLACEMENT_3D($,#577,#476,#477);
#405=AXIS2_PLACEMENT_3D($,#579,#478,#479);
#406=AXIS2_PLACEMENT_3D($,#581,#480,#481);
#407=AXIS2_PLACEMENT_3D($,#582,#482,#483);
#408=AXIS2_PLACEMENT_3D($,#584,#484,#485);
#409=AXIS2_PLACEMENT_3D($,#585,#486,#487);
#410=AXIS2_PLACEMENT_3D($,#586,#488,#489);
#411=AXIS2_PLACEMENT_3D($,#588,#490,#491);
#412=AXIS2_PLACEMENT_3D($,#589,#492,#493);
#413=AXIS2_PLACEMENT_3D($,#622,#494,#495);
#414=AXIS2_PLACEMENT_3D($,#623,#496,#497);
#415=AXIS2_PLACEMENT_3D($,#625,#498,#499);
#416=AXIS2_PLACEMENT_3D($,#626,#500,#501);
#417=AXIS2_PLACEMENT_3D($,#628,#502,#503);
#418=AXIS2_PLACEMENT_3D($,#629,#504,#505);
#419=AXIS2_PLACEMENT_3D($,#635,#509,#510);
#420=AXIS2_PLACEMENT_3D($,#639,#513,#514);
#421=AXIS2_PLACEMENT_3D($,#643,#517,#518);
#422=AXIS2_PLACEMENT_3D($,#647,#521,#522);
#423=AXIS2_PLACEMENT_3D($,#651,#525,#526);
#424=AXIS2_PLACEMENT_3D($,#653,#528,#529);
#425=AXIS2_PLACEMENT_3D($,#654,#530,#531);
#426=AXIS2_PLACEMENT_3D($,#655,#532,#533);
#427=AXIS2_PLACEMENT_3D($,#656,#534,#535);
#428=AXIS2_PLACEMENT_3D($,#657,#536,#537);
#429=AXIS2_PLACEMENT_3D($,#658,#538,#539);
#430=DIRECTION('axis',(0.,0.,1.));
#431=DIRECTION('refdir',(1.,0.,0.));
#432=DIRECTION('center_axis',(1.,0.,0.));
#433=DIRECTION('ref_axis',(0.,0.,-1.));
#434=DIRECTION('center_axis',(1.,0.,0.));
#435=DIRECTION('ref_axis',(0.,0.,-1.));
#436=DIRECTION('center_axis',(-1.,0.,0.));
#437=DIRECTION('ref_axis',(0.,0.,-1.));
#438=DIRECTION('center_axis',(1.,0.,0.));
#439=DIRECTION('ref_axis',(0.,0.,1.));
#440=DIRECTION('center_axis',(1.,0.,0.));
#441=DIRECTION('ref_axis',(0.,0.,1.));
#442=DIRECTION('center_axis',(-1.,0.,0.));
#443=DIRECTION('ref_axis',(0.,0.,1.));
#444=DIRECTION('center_axis',(1.,0.,0.));
#445=DIRECTION('ref_axis',(0.,0.,-1.));
#446=DIRECTION('center_axis',(-1.,0.,0.));
#447=DIRECTION('ref_axis',(0.,0.,-1.));
#448=DIRECTION('center_axis',(-1.,0.,0.));
#449=DIRECTION('ref_axis',(0.,0.,-1.));
#450=DIRECTION('center_axis',(1.,0.,0.));
#451=DIRECTION('ref_axis',(0.,0.,-1.));
#452=DIRECTION('center_axis',(1.,0.,0.));
#453=DIRECTION('ref_axis',(0.,0.,1.));
#454=DIRECTION('center_axis',(-1.,0.,0.));
#455=DIRECTION('ref_axis',(0.,0.,1.));
#456=DIRECTION('center_axis',(1.,0.,0.));
#457=DIRECTION('ref_axis',(0.,0.,1.));
#458=DIRECTION('center_axis',(1.,0.,0.));
#459=DIRECTION('ref_axis',(0.,1.,0.));
#460=DIRECTION('center_axis',(-1.,0.,0.));
#461=DIRECTION('ref_axis',(0.,1.,0.));
#462=DIRECTION('center_axis',(1.,0.,0.));
#463=DIRECTION('ref_axis',(0.,1.,0.));
#464=DIRECTION('center_axis',(1.,0.,0.));
#465=DIRECTION('ref_axis',(0.,0.,-1.));
#466=DIRECTION('center_axis',(-1.,0.,0.));
#467=DIRECTION('ref_axis',(0.,0.,-1.));
#468=DIRECTION('center_axis',(1.,0.,0.));
#469=DIRECTION('ref_axis',(0.,0.,-1.));
#470=DIRECTION('center_axis',(1.,0.,0.));
#471=DIRECTION('ref_axis',(0.,-1.,0.));
#472=DIRECTION('center_axis',(-1.,0.,0.));
#473=DIRECTION('ref_axis',(0.,-1.,0.));
#474=DIRECTION('center_axis',(1.,0.,0.));
#475=DIRECTION('ref_axis',(0.,-1.,0.));
#476=DIRECTION('center_axis',(1.,0.,0.));
#477=DIRECTION('ref_axis',(0.,0.,1.));
#478=DIRECTION('center_axis',(-1.,0.,0.));
#479=DIRECTION('ref_axis',(0.,0.,1.));
#480=DIRECTION('center_axis',(1.,0.,0.));
#481=DIRECTION('ref_axis',(0.,0.,1.));
#482=DIRECTION('center_axis',(1.,0.,0.));
#483=DIRECTION('ref_axis',(0.,0.,1.));
#484=DIRECTION('center_axis',(1.,0.,0.));
#485=DIRECTION('ref_axis',(0.,0.,1.));
#486=DIRECTION('center_axis',(1.,0.,0.));
#487=DIRECTION('ref_axis',(0.,0.,1.));
#488=DIRECTION('center_axis',(1.,0.,0.));
#489=DIRECTION('ref_axis',(0.,0.,-1.));
#490=DIRECTION('center_axis',(-1.,0.,0.));
#491=DIRECTION('ref_axis',(0.,0.,-1.));
#492=DIRECTION('center_axis',(1.,0.,0.));
#493=DIRECTION('ref_axis',(0.,0.,1.));
#494=DIRECTION('center_axis',(1.,0.,0.));
#495=DIRECTION('ref_axis',(0.,0.,1.));
#496=DIRECTION('center_axis',(-1.,0.,0.));
#497=DIRECTION('ref_axis',(0.,0.,1.));
#498=DIRECTION('center_axis',(1.,0.,0.));
#499=DIRECTION('ref_axis',(0.,0.,-1.));
#500=DIRECTION('center_axis',(-1.,0.,0.));
#501=DIRECTION('ref_axis',(0.,0.,-1.));
#502=DIRECTION('center_axis',(1.,0.,0.));
#503=DIRECTION('ref_axis',(0.,0.,-1.));
#504=DIRECTION('center_axis',(0.,0.866025403784438,-0.500000000000001));
#505=DIRECTION('ref_axis',(0.,-0.500000000000001,-0.866025403784438));
#506=DIRECTION($,(1.,0.,0.));
#507=DIRECTION($,(0.,-0.500000000000001,-0.866025403784438));
#508=DIRECTION($,(-1.,0.,0.));
#509=DIRECTION('center_axis',(0.,0.866025403784438,0.500000000000001));
#510=DIRECTION('ref_axis',(0.,0.500000000000001,-0.866025403784438));
#511=DIRECTION($,(0.,0.500000000000001,-0.866025403784438));
#512=DIRECTION($,(-1.,0.,0.));
#513=DIRECTION('center_axis',(0.,0.,1.));
#514=DIRECTION('ref_axis',(0.,1.,0.));
#515=DIRECTION($,(0.,1.,0.));
#516=DIRECTION($,(-1.,0.,0.));
#517=DIRECTION('center_axis',(0.,-0.866025403784438,0.500000000000001));
#518=DIRECTION('ref_axis',(0.,0.500000000000001,0.866025403784438));
#519=DIRECTION($,(0.,0.500000000000001,0.866025403784438));
#520=DIRECTION($,(-1.,0.,0.));
#521=DIRECTION('center_axis',(0.,-0.866025403784438,-0.500000000000001));
#522=DIRECTION('ref_axis',(0.,-0.500000000000001,0.866025403784438));
#523=DIRECTION($,(0.,-0.500000000000001,0.866025403784438));
#524=DIRECTION($,(-1.,0.,0.));
#525=DIRECTION('center_axis',(0.,0.,-1.));
#526=DIRECTION('ref_axis',(0.,-1.,0.));
#527=DIRECTION($,(0.,-1.,0.));
#528=DIRECTION('center_axis',(-1.,0.,0.));
#529=DIRECTION('ref_axis',(0.,0.,1.));
#530=DIRECTION('center_axis',(-1.,0.,0.));
#531=DIRECTION('ref_axis',(0.,0.,1.));
#532=DIRECTION('center_axis',(1.,0.,0.));
#533=DIRECTION('ref_axis',(0.,0.,-1.));
#534=DIRECTION('center_axis',(1.,0.,0.));
#535=DIRECTION('ref_axis',(0.,0.,-1.));
#536=DIRECTION('center_axis',(1.,0.,0.));
#537=DIRECTION('ref_axis',(0.,0.,-1.));
#538=DIRECTION('center_axis',(-1.,0.,0.));
#539=DIRECTION('ref_axis',(0.,0.,1.));
#540=CARTESIAN_POINT('',(0.,0.,0.));
#541=CARTESIAN_POINT('Origin',(49.6793670625,30.,19.7));
#542=CARTESIAN_POINT('',(49.95,30.,22.7));
#543=CARTESIAN_POINT('Origin',(49.95,30.,19.7));
#544=CARTESIAN_POINT('',(49.8,30.,22.55));
#545=CARTESIAN_POINT('Origin',(49.8,30.,19.7));
#546=CARTESIAN_POINT('Origin',(47.95,30.,19.7));
#547=CARTESIAN_POINT('',(46.25,30.,12.7));
#548=CARTESIAN_POINT('Origin',(46.25,30.,19.7));
#549=CARTESIAN_POINT('',(49.65,30.,12.7));
#550=CARTESIAN_POINT('Origin',(49.65,30.,19.7));
#551=CARTESIAN_POINT('Origin',(46.1,30.,19.7));
#552=CARTESIAN_POINT('',(45.95,30.,26.4));
#553=CARTESIAN_POINT('Origin',(45.95,30.,19.7));
#554=CARTESIAN_POINT('Origin',(49.8,30.,19.7));
#555=CARTESIAN_POINT('',(49.95,30.,26.4));
#556=CARTESIAN_POINT('Origin',(49.95,30.,19.7));
#557=CARTESIAN_POINT('Origin',(47.95,30.,24.7));
#558=CARTESIAN_POINT('',(49.95,30.,23.7));
#559=CARTESIAN_POINT('Origin',(49.95,30.,24.7));
#560=CARTESIAN_POINT('',(45.95,30.,23.7));
#561=CARTESIAN_POINT('Origin',(45.95,30.,24.7));
#562=CARTESIAN_POINT('Origin',(47.95,35.,19.7));
#563=CARTESIAN_POINT('',(49.95,34.,19.7));
#564=CARTESIAN_POINT('Origin',(49.95,35.,19.7));
#565=CARTESIAN_POINT('',(45.95,34.,19.7));
#566=CARTESIAN_POINT('Origin',(45.95,35.,19.7));
#567=CARTESIAN_POINT('Origin',(47.95,30.,14.7));
#568=CARTESIAN_POINT('',(49.95,30.,15.7));
#569=CARTESIAN_POINT('Origin',(49.95,30.,14.7));
#570=CARTESIAN_POINT('',(45.95,30.,15.7));
#571=CARTESIAN_POINT('Origin',(45.95,30.,14.7));
#572=CARTESIAN_POINT('Origin',(47.95,25.,19.7));
#573=CARTESIAN_POINT('',(49.95,26.,19.7));
#574=CARTESIAN_POINT('Origin',(49.95,25.,19.7));
#575=CARTESIAN_POINT('',(45.95,26.,19.7));
#576=CARTESIAN_POINT('Origin',(45.95,25.,19.7));
#577=CARTESIAN_POINT('Origin',(38.7,29.,19.7));
#578=CARTESIAN_POINT('',(32.95,33.,19.7));
#579=CARTESIAN_POINT('Origin',(32.95,29.,19.7));
#580=CARTESIAN_POINT('',(44.45,33.,19.7));
#581=CARTESIAN_POINT('Origin',(44.45,29.,19.7));
#582=CARTESIAN_POINT('Origin',(31.,30.,19.7));
#583=CARTESIAN_POINT('',(28.179415,30.,16.7));
#584=CARTESIAN_POINT('Origin',(28.179415,30.,19.7));
#585=CARTESIAN_POINT('Origin',(32.95,30.,19.7));
#586=CARTESIAN_POINT('Origin',(27.9647075,30.,19.7));
#587=CARTESIAN_POINT('',(27.75,30.,22.270585));
#588=CARTESIAN_POINT('Origin',(27.75,30.,19.7));
#589=CARTESIAN_POINT('Origin',(47.45,30.,19.7));
#590=CARTESIAN_POINT('',(47.8160254037844,30.,21.2));
#591=CARTESIAN_POINT('',(47.95,29.1339745962156,21.2));
#592=CARTESIAN_POINT('Ctrl Pts',(47.8160254037844,30.,21.2));
#593=CARTESIAN_POINT('Ctrl Pts',(47.8160254037845,29.5980762113533,21.2));
#594=CARTESIAN_POINT('Ctrl Pts',(47.95,29.1339745962156,21.2));
#595=CARTESIAN_POINT('',(47.95,28.2679491924311,19.7));
#596=CARTESIAN_POINT('Ctrl Pts',(47.95,29.1339745962156,21.2));
#597=CARTESIAN_POINT('Ctrl Pts',(47.7,28.7009618943233,20.45));
#598=CARTESIAN_POINT('Ctrl Pts',(47.95,28.2679491924311,19.7));
#599=CARTESIAN_POINT('',(47.95,29.1339745962156,18.2));
#600=CARTESIAN_POINT('Ctrl Pts',(47.95,28.2679491924311,19.7));
#601=CARTESIAN_POINT('Ctrl Pts',(47.7,28.7009618943233,18.95));
#602=CARTESIAN_POINT('Ctrl Pts',(47.95,29.1339745962156,18.2));
#603=CARTESIAN_POINT('',(47.8160254037844,30.,18.2));
#604=CARTESIAN_POINT('Ctrl Pts',(47.95,29.1339745962156,18.2));
#605=CARTESIAN_POINT('Ctrl Pts',(47.8160254037845,29.5980762113533,18.2));
#606=CARTESIAN_POINT('Ctrl Pts',(47.8160254037844,30.,18.2));
#607=CARTESIAN_POINT('',(47.95,30.8660254037844,18.2));
#608=CARTESIAN_POINT('Ctrl Pts',(47.8160254037844,30.,18.2));
#609=CARTESIAN_POINT('Ctrl Pts',(47.8160254037845,30.4019237886467,18.2));
#610=CARTESIAN_POINT('Ctrl Pts',(47.95,30.8660254037844,18.2));
#611=CARTESIAN_POINT('',(47.95,31.7320508075689,19.7));
#612=CARTESIAN_POINT('Ctrl Pts',(47.95,30.8660254037844,18.2));
#613=CARTESIAN_POINT('Ctrl Pts',(47.7,31.2990381056767,18.95));
#614=CARTESIAN_POINT('Ctrl Pts',(47.95,31.7320508075689,19.7));
#615=CARTESIAN_POINT('',(47.95,30.8660254037844,21.2));
#616=CARTESIAN_POINT('Ctrl Pts',(47.95,31.7320508075689,19.7));
#617=CARTESIAN_POINT('Ctrl Pts',(47.7,31.2990381056767,20.45));
#618=CARTESIAN_POINT('Ctrl Pts',(47.95,30.8660254037844,21.2));
#619=CARTESIAN_POINT('Ctrl Pts',(47.95,30.8660254037844,21.2));
#620=CARTESIAN_POINT('Ctrl Pts',(47.8160254037844,30.4019237886467,21.2));
#621=CARTESIAN_POINT('Ctrl Pts',(47.8160254037844,30.,21.2));
#622=CARTESIAN_POINT('Origin',(47.2,30.,19.7));
#623=CARTESIAN_POINT('Origin',(44.45,30.,19.7));
#624=CARTESIAN_POINT('',(45.95,30.,16.7));
#625=CARTESIAN_POINT('Origin',(45.95,30.,19.7));
#626=CARTESIAN_POINT('Origin',(49.8,30.,19.7));
#627=CARTESIAN_POINT('',(49.95,30.,22.4));
#628=CARTESIAN_POINT('Origin',(49.95,30.,19.7));
#629=CARTESIAN_POINT('Origin',(49.95,28.2679491924311,19.7));
#630=CARTESIAN_POINT('',(49.95,29.1339745962156,21.2));
#631=CARTESIAN_POINT($,(48.95,29.1339745962156,21.2));
#632=CARTESIAN_POINT('',(49.95,28.2679491924311,19.7));
#633=CARTESIAN_POINT($,(49.95,29.1339745962156,21.2));
#634=CARTESIAN_POINT($,(48.95,28.2679491924311,19.7));
#635=CARTESIAN_POINT('Origin',(49.95,29.1339745962156,18.2));
#636=CARTESIAN_POINT('',(49.95,29.1339745962156,18.2));
#637=CARTESIAN_POINT($,(49.95,28.2679491924311,19.7));
#638=CARTESIAN_POINT($,(48.95,29.1339745962156,18.2));
#639=CARTESIAN_POINT('Origin',(49.95,30.8660254037844,18.2));
#640=CARTESIAN_POINT('',(49.95,30.8660254037844,18.2));
#641=CARTESIAN_POINT($,(49.95,29.1339745962156,18.2));
#642=CARTESIAN_POINT($,(48.95,30.8660254037844,18.2));
#643=CARTESIAN_POINT('Origin',(49.95,31.7320508075689,19.7));
#644=CARTESIAN_POINT('',(49.95,31.7320508075689,19.7));
#645=CARTESIAN_POINT($,(49.95,30.8660254037844,18.2));
#646=CARTESIAN_POINT($,(48.95,31.7320508075689,19.7));
#647=CARTESIAN_POINT('Origin',(49.95,30.8660254037844,21.2));
#648=CARTESIAN_POINT('',(49.95,30.8660254037844,21.2));
#649=CARTESIAN_POINT($,(49.95,31.7320508075689,19.7));
#650=CARTESIAN_POINT($,(48.95,30.8660254037844,21.2));
#651=CARTESIAN_POINT('Origin',(49.95,29.1339745962156,21.2));
#652=CARTESIAN_POINT($,(49.95,30.8660254037844,21.2));
#653=CARTESIAN_POINT('Origin',(27.75,30.,19.7));
#654=CARTESIAN_POINT('Origin',(32.95,29.,19.7));
#655=CARTESIAN_POINT('Origin',(44.45,29.,19.7));
#656=CARTESIAN_POINT('Origin',(49.95,30.,19.7));
#657=CARTESIAN_POINT('Origin',(49.95,30.,19.7));
#658=CARTESIAN_POINT('Origin',(45.95,30.,19.7));
#659=UNCERTAINTY_MEASURE_WITH_UNIT(LENGTH_MEASURE(0.01),#661,
'DISTANCE_ACCURACY_VALUE',
'Maximum model space distance between geometric entities at asserted c
onnectivities');
#660=(
GEOMETRIC_REPRESENTATION_CONTEXT(3)
GLOBAL_UNCERTAINTY_ASSIGNED_CONTEXT((#659))
GLOBAL_UNIT_ASSIGNED_CONTEXT((#661,#663,#662))
REPRESENTATION_CONTEXT('','3D')
);
#661=(
LENGTH_UNIT()
NAMED_UNIT(*)
SI_UNIT(.MILLI.,.METRE.)
);
#662=(
NAMED_UNIT(*)
SI_UNIT($,.STERADIAN.)
SOLID_ANGLE_UNIT()
);
#663=(
NAMED_UNIT(*)
PLANE_ANGLE_UNIT()
SI_UNIT($,.RADIAN.)
);
#664=SHAPE_DEFINITION_REPRESENTATION(#665,#666);
#665=PRODUCT_DEFINITION_SHAPE('',$,#668);
#666=SHAPE_REPRESENTATION('',(#381),#660);
#667=PRODUCT_DEFINITION_CONTEXT('3D Mechanical Parts',#671,'design');
#668=PRODUCT_DEFINITION('11227_KriTec_Bolzen_8_D10_exzentrisch',
'11227_KriTec_Bolzen_8_D10_exzentrisch',#669,#667);
#669=PRODUCT_DEFINITION_FORMATION('',$,#673);
#670=APPLICATION_PROTOCOL_DEFINITION('international standard',
'automotive_design',2009,#671);
#671=APPLICATION_CONTEXT(
'Core Data for Automotive Mechanical Design Process');
#672=PRODUCT_CONTEXT('3D Mechanical Parts',#671,'mechanical');
#673=PRODUCT('11227_KriTec_Bolzen_8_D10_exzentrisch',
'11227_KriTec_Bolzen_8_D10_exzentrisch',$,(#672));
#674=PRESENTATION_STYLE_ASSIGNMENT((#675));
#675=SURFACE_STYLE_USAGE(.BOTH.,#676);
#676=SURFACE_SIDE_STYLE($,(#677));
#677=SURFACE_STYLE_FILL_AREA(#678);
#678=FILL_AREA_STYLE($,(#679));
#679=FILL_AREA_STYLE_COLOUR($,#680);
#680=COLOUR_RGB('',0.501960784313725,0.501960784313725,0.501960784313725);
ENDSEC;
END-ISO-10303-21;
